Song name
# A B C D E F G H I J K L M N O P Q R S T U V W X Y Z

Hookers - The Legend Of Black Thunder tab

-------------------------------------------------------------------------------
	         The Legend Of Black Thunder - Hookers
-------------------------------------------------------------------------------
Tabbed by:back&brock
Tuning:standard

main
e|---------------------------------------------------------------------------|
B|---------------------------------------------------------------------------|
G|--77-7-7-7--9--10-10-10-10-10-10-10-10-------------------------------------|
D|--77-7-7-7--9--10-10-10-10-10-10-10-10-------------------------------------|
A|--55-5-5-5--7---8--8--8--8--8--8--8--8-------------------------------------|
E|---------------------------------------------------------------------------|

e|---------------------------------------------------------------------------|
B|---------------------------------------------------------------------------|
G|--10-10-10-10-10--9--7-7-7-7-7-7-7-7---------------------------------------|
D|--10-10-10-10-10--9--7-7-7-7-7-7-7-7---------------------------------------|
A|---8--8--8--8--8--7--5-5-5-5-5-5-5-5---------------------------------------|
E|---------------------------------------------------------------------------|
Tap to rate this tab
 
# A B C D E F G H I J K L M N O P Q R S T U V W X Y Z