Song name
# A B C D E F G H I J K L M N O P Q R S T U V W X Y Z

Hootie And The Blowfish - Let Her Cry tab

----------------------------------------------------------------------------
	            Let Her Cry - Hootie and the Blowfish
----------------------------------------------------------------------------
Tabbed by:Damian Mc
Email:mclemoredamian@yahoo.com

Tuning:EADGbe Key of G

e|---------------------------------------------------------------------------|
B|----------------------------------/12~12~~12~------------------------------|
G|-----------------7-7h9p7----------/12~~~12~12/9^-7--7-7h9p7----------------|
D|-------------7-9---------9/7/9~~7---------------------------9p7-9p7-9p7----|
A|-10~~10-7-10---------------------------------------------------------------|
E|---------------------------------------------------------------------------|

e|--------------------------------------------------------------------------|
B|--------------------------------------------------------------------------|
G|-------------------7-7h9p7------------------------------------------------|
D|---------------7-9---------9/7--------------------------------------------|
A|--10~~-10-7-10-----------------/10~~~-------------------------------------|
E|--------------------------------------------------------------------------|

| /  slide up
| \  slide down
| h  hammer-on
| p  pull-off
| ~  vibrato
| +  harmonic
| x  Mute note
============================================================================
Tap to rate this tab
 
# A B C D E F G H I J K L M N O P Q R S T U V W X Y Z