Song name
# A B C D E F G H I J K L M N O P Q R S T U V W X Y Z

Hootie And The Blowfish - Only Wanna Be With You tab

Only Wanna Be With You
Hootie and the Blowfish


Capo on 2nd Fret
The numbers are relative to the capo, so 4 is now 2 and so on

Intro:

E|---0---0-0-0---0--0-0-0-0-0-0-|
B|---0---0-0-0---0--0-0-0-0-0-0-|
G|---1---1-1-1---2--2-2-2-2-2-2-| Repeat 3 times
D|---2---2-2-2---4--4-4-4-4-4-4-|
A|---2---2-2-2---0--0-0-0-0-0-0-|
E|---0---0-0-0---x--x-x-x-x-x-x-|

E|----------------------------|
B|---4---4--------------------|
G|---4---4--------------------|
D|---4---4-Let it ring--------|
A|---2---2--------------------|
E|---2---2--------------------|

mute the x with your thumb, I showed the strumming pattern, although I know you know it ;)

Verse (same as first part of intro riff)
E|---0---0-0-0---0--0-0-0-0-0-0-|
B|---0---0-0-0---0--0-0-0-0-0-0-|
G|---1---1-1-1---2--2-2-2-2-2-2-| Repeat until...
D|---2---2-2-2---4--4-4-4-4-4-4-|
A|---2---2-2-2---0--0-0-0-0-0-0-|
E|---0---0-0-0---x--x-x-x-x-x-x-|

Well theres nothing I can do       (let it ring)    I only wanna be with you
E|---0--0-0-0-0----------------------------------------|
B|---2--2-2-2-2----------4---4-------------------------|
G|---2--2-2-2-2----------4---4-------------------------|
D|---2--2-2-2-2----------4---4-------------------------|
A|---0--0-0-0-0----------2---2-------------------------|
E|---x--x-x-x-x----------2---2-------------------------|
After the first verse this is played again after one bar of the main riff between, 
the choruses
The second time through it actually is played twice, with one bar of the main riff 
the first time the 22444 structure is struck once, then twice on the second pass

Then repeat it all again from the verse til the end of the song
Enjoy ! ! !
Tap to rate this tab
# A B C D E F G H I J K L M N O P Q R S T U V W X Y Z