Song name
# A B C D E F G H I J K L M N O P Q R S T U V W X Y Z

Hop Along - Tibetan Pop Stars tab

Tibetan Pop Stars - Hop Along


Tuning:Standard

Intro part 1(When playing the live version):
e|-----------------------------------------------------------------------|
B|-----------------------------------------------------------------------|
G|-----------------------------------------------------------------------|
D|-x-x---x--x--x--x--x----x---x---x---x----x----x---x---x-x-x-x-x-x-x-x--| x2
A|-6/7---7--7--7--7--9----7---11--11--x----x----x---x---7-7-7-7-7-7-7-7--|
E|-x-x---x--x--x--x--x----x---x---x---11---11---11--11--9-9-9-9-9-9-9-9--|

Intro part 2:
e|-----------------------------------------------------------------------|
B|-----------------------------------------------------------------------|
G|------------------------------------------11111111---------------------|
D|-x-x-x-x-x-x-x-x-x-x-x-x-x--x--x--x-x-x-x-x-x-x-x----------------------| x2
A|-6/7-7-7-7-7-7-9-9-9-7-7-11-11-11-7-7-7-7-7-7-7-7--6-6-6-6-6-6-6-6-----|
E|-0-0-0-0-0-0-0-0-0-0-0-0-0--0--0--9-9-9-9-9-9-9-9--7-7-7-7-7-7-7-7-----|

Verse 1: "How content are with ones..."
e|-----------------------------------------------------------------------|
B|-----------------------------------------------------------------------|
G|-----------------------------------------------------------------------|
D|-----------------------------------------------------------------------| x3
A|-6/7-7-7-7-7-7-7-7-7-7-7-7-7-7-7-7-7-7-7-7-7-7-7-7-7-7-7-7-7-7---------|
E|-0-0-0-0-0-0-0-0-0-0-0-0-0-0-0-9-9-9-9-9-9-9-9-9-9-9-9-9-9-9-9---------|
   . . . . . . . . . . . . . . . . . . . . . . . . . . . . . . .  
Bridge: "...his three..."
e|-----------------------------------------------------------------------|
B|-----------------------------------------------------------------------|
G|-----------------------------------------------------------------------|
D|-9-9-9-9-9-9-9-9-9-9-9-9-9-9-9--7-7-7-7-7-7-7-7-7-7-7-7-7-7-7-7--------| x1
A|-9-9-9-9-9-9-9-9-9-9-9-9-9-9-9--7-7-7-7-7-7-7-7-7-7-7-7-7-7-7-7--------|
E|-7-7-7-7-7-7-7-7-7-7-7-7-7-7-7--5-5-5-5-5-5-5-5-5-5-5-5-5-5-5-5--------|

e|-----------------------------------------------------------------------|
B|-----------------------------------------------------------------------|
G|------------------------------------------11111111---------------------|
D|-x-x-x-x-x-x-x-x-x-x-x-x-x--x--x--x-x-x-x-x-x-x-x----------------------| x2
A|-6/7-7-7-7-7-7-9-9-9-7-7-11-11-11-7-7-7-7-7-7-7-7--6-6-6-6-6-6-6-6-----|
E|-0-0-0-0-0-0-0-0-0-0-0-0-0--0--0--9-9-9-9-9-9-9-9--7-7-7-7-7-7-7-7-----|


Verse 2: "Honey I left to see..."
e|-----------------------------------------------------------------------|
B|-----------------------------------------------------------------------|
G|-----------------------------------------------------------------------|
D|-----------------------------------------------------------------------| x2
A|-6/7-7-7-7-7-7-7-7-7-7-7-7-7-7-7-7-7-7-7-7-7-7-7-7-7-7-7-7-7-7---------|
E|-0-0-0-0-0-0-0-0-0-0-0-0-0-0-0-9-9-9-9-9-9-9-9-9-9-9-9-9-9-9-9---------|
   . . . . . . . . . . . . . . . . . . . . . . . . . . . . . . .  

Chorus 1: "Stranger in India..."
e|-----------------------------------------------------------------------|
B|-----------------------------------------------------------------------|
G|-----------------------------------------------------------------------|
D|-7-7-7-7-7-------1111111111-------9-9-9-9-9-------1414141414-9-9-9-9-9-| x1
A|-7-7-7-7-7-------1111111111-------9-9-9-9-9-------1414141414-9-9-9-9-9-|
E|-5-5-5-5-5-------9-9-9-9-9--------7-7-7-7-7-------1212121212-7-7-7-7-7-|

e|-----------------------------------------------------------------------|
B|-----------------------------------------------------------------------|
G|------------------------------------------11111111---------------------|
D|-x-x-x-x-x-x-x-x-x-x-x-x-x--x--x--x-x-x-x-x-x-x-x----------------------| x2
A|-6/7-7-7-7-7-7-9-9-9-7-7-11-11-11-7-7-7-7-7-7-7-7--6-6-6-6-6-6-6-6-----|
E|-0-0-0-0-0-0-0-0-0-0-0-0-0--0--0--9-9-9-9-9-9-9-9--7-7-7-7-7-7-7-7-----|

Verse 3: "I know its true."
e|-----------------------------------------------------------------------|
B|-----------------------------------------------------------------------|
G|-----------------------------------------------------------------------|
D|-----------------------------------------------------------------------| x2
A|-6/7-7-7-7-7-7-7-7-7-7-7-7-7-7-7-7-7-7-7-7-7-7-7-7-7-7-7-7-7-7---------|
E|-0-0-0-0-0-0-0-0-0-0-0-0-0-0-0-9-9-9-9-9-9-9-9-9-9-9-9-9-9-9-9---------|
   . . . . . . . . . . . . . . . . . . . . . . . . . . . . . . .  

Chorus 2: "A stranger in India. Doing okay so far..."
e|-----------------------------------------------------------------------|
B|-----------------------------------------------------------------------|
G|-----------------------------------------------------------------------|
D|-7-7-7-7-7-7-7-7-1111111111111111-9-9-9-9-9-9-9-9-1414141414-9-9-9-9-9-| x1
A|-7-7-7-7-7-7-7-7-1111111111111111-9-9-9-9-9-9-9-9-1414141414-9-9-9-9-9-|
E|-5-5-5-5-5-5-5-5-9-9-9-9-9-9-9-9--7-7-7-7-7-7-7-7-1212121212-7-7-7-7-7-|

Outro part 1: "Nobody deserves you the way that I do."
e|-----------------------------------------------------------------------|
B|-----------------------------------------------------------------------|
G|-----------------------------------9-9-9-9-9---------------------------|
D|-1111111111-------7-7-7-7-7--------9-9-9-9-9-------9-9-9-9-9-----------| x4
A|-1111111111-------7-7-7-7-7--------7-7-7-7-7-------9-9-9-9-9-----------|
E|-9-9-9-9-9--------5-5-5-5-5------------------------7-7-7-7-7-----------|

Outro part 2: "Come home my stranger in India..."
e|-----------------------------------------------------------------------|
B|-----------------------------------------------------------------------|
G|-----------------------------------------------------------------------|
D|-7-7-7-7---------1111111111111111-9-9-9-9-9-9-9-9-1414141414-9-9-9-9-9-| x1
A|-7-7-7-7---------1111111111111111-9-9-9-9-9-9-9-9-1414141414-9-9-9-9-9-|
E|-5-5-5-5---------9-9-9-9-9-9-9-9--7-7-7-7-7-7-7-7-1212121212-7-7-7-7-7-|

e|-----------------------------------------------------------------------|
B|-----------------------------------------------------------------------|
G|-----------------------------------------------------------------------|
D|-7-7-7-7-7-7-7-7-1111111111111111-9-9-9-9-9-9-9-9-1414141414-9-9-9-9-9-| x3
A|-7-7-7-7-7-7-7-7-1111111111111111-9-9-9-9-9-9-9-9-1414141414-9-9-9-9-9-|
E|-5-5-5-5-5-5-5-5-9-9-9-9-9-9-9-9--7-7-7-7-7-7-7-7-1212121212-7-7-7-7-7-|

Outro part 3: "Law..."
e|-----------------------------------------------------------------------|
B|-----------------------------------------------------------------------|
G|-----------------------------------------------------------------------|
D|-x-x---x--x--x--x--x----x---x---x---x----x----x---x---x-x-x-x-x-x-x-x--| x2
A|-6/7---7--7--7--7--9----7---11--11--x----x----x---x---7-7-7-7-7-7-7-7--|
E|-x-x---x--x--x--x--x----x---x---x---11---11---11--11--9-9-9-9-9-9-9-9--|

| /  slide up
| x  Mute note
| .  Palm mute
Tap to rate this tab
# A B C D E F G H I J K L M N O P Q R S T U V W X Y Z