Song name
# A B C D E F G H I J K L M N O P Q R S T U V W X Y Z

Hope For The Dying - Would The Angels Say tab

-------------------------------------------------------------------------------
                             Would The Angels Say - Hope For the Dying
-------------------------------------------------------------------------------
Tabbed by:      Adrian Bennett
E-mail:         adbenne@yahoo.com


e|---------------------------------------------------------------------------|
B|----------------------13-15------15--16--15--13-----13--16-----------------|
G|--12---12--14--15-------------------------------15----------14-------------|
D|---------------------------------------------------------------------------|
A|---------------------------------------------------------------------------|
E|---------------------------------------------------------------------------|

e|---------------------------------------------------------------------------|
B|---------------------------------------------------------------------------|
G|--14--15--17--12--14--15--11--12--14------14-------------------------------|
D|--------------------------------------13-----------------------------------|
A|---------------------------------------------------------------------------|
E|---------------------------------------------------------------------------|

e|---------------------------------------------------------------------------|
B|-----------------13--15--15--16--15--13------13--18--13--16----------------|
G|-12--12--14--15--------------------------15--------------------------------|
D|---------------------------------------------------------------------------|
A|---------------------------------------------------------------------------|
E|---------------------------------------------------------------------------|

e|---------------------------------------------|
B|-16--16--15--13------------------------------|
G|-----------------15--14--12--11--12--14--11--|
D|---------------------------------------------|
A|---------------------------------------------|
E|---------------------------------------------|

e|---------------------------------------------------------------------------|
B|----------------------13-15------15--16--15--13-----13--16-----------------|
G|--12---12--14--15-------------------------------15----------14-------------|
D|---------------------------------------------------------------------------|
A|---------------------------------------------------------------------------|
E|---------------------------------------------------------------------------|

e|---------------------------------------------------------------------------|
B|---------------------------------------------------------------------------|
G|--14--15--17--12--14--15--11--12--14------14-------------------------------|
D|--------------------------------------13-----------------------------------|
A|---------------------------------------------------------------------------|
E|---------------------------------------------------------------------------|
Tap to rate this tab
# A B C D E F G H I J K L M N O P Q R S T U V W X Y Z