Song name
# A B C D E F G H I J K L M N O P Q R S T U V W X Y Z

Hope Of The States - Blood Meridian tab

-------------------------------------------------------------------------------
	           BLOOD MERIDIAN (Intro) - Hope Of The States
-------------------------------------------------------------------------------
Tabbed by: KingBuz

Tuning: Standard

Pretty tough finger positions on second part of intro, but with practice can be 
Good Luck! Comments welcome, please rate

e|-------17-------17-------17-------17-------17-------17-------17-------17-|
B|-12-12----12-12----12-12----12-12----12-12----12-12----12-12----12-12----|
G|-------------------------------------------------------------------------|
D|-------------------------------------------------------------------------|
A|-------------------------------------------------------------------------|
E|-------------------------------------------------------------------------|

e|-19--19--14--15----14--17----14--15----14-|
B|-15--15------15-15-----15-15-----15-15----|
G|------------------------------------------|
D|------------------------------------------|
A|------------------------------------------|
E|------------------------------------------|

e|-19--19--14--15----14--17----14--15----14-|
B|------------------------------------------|
G|-16--16------16-16-----16-16-----16-16----|
D|------------------------------------------|
A|------------------------------------------|
E|------------------------------------------|

e|-19--19--14--15----14--17----14--15----14-|
B|------------------------------------------|
G|-14--14------14-14-----14-14-----14-14----|
D|------------------------------------------|
A|------------------------------------------|
E|------------------------------------------|

e|-19--19--14--15----14--17----14--15----14-|
B|------------------------------------------|
G|------------------------------------------|
D|-17--17------17-17-----17-17-----17-17----|
A|------------------------------------------|
E|------------------------------------------|

e|-19--19--14--15----14--17----14--15----14-|
B|------------------------------------------|
G|------------------------------------------|
D|-16--16------16-16-----16-16-----16-16----|
A|------------------------------------------|
E|------------------------------------------|

e|-19--19--14--15----14--17----14--15----14-|
B|------------------------------------------|
G|------------------------------------------|
D|-16--16------16-16-----16-16-----16-16----|
A|------------------------------------------|
E|------------------------------------------|
Tap to rate this tab
# A B C D E F G H I J K L M N O P Q R S T U V W X Y Z