Song name
# A B C D E F G H I J K L M N O P Q R S T U V W X Y Z

Hope Of The States - The Red The White The Black The Blue tab

This perhaps my alllll time fav H.O.T.S song!!
Ne probs or questions e-mail in_your_world@hotmail.co.uk or rhcp_3454@hotmail.com but i
always use the 1st one so u know...

Tuning:Standard

E                  C                          
mouths of dust and ruptured wind pipe,
fairy tails for lying cheats,
they're lashing out like wolves in barbed wire,
ring the bells and start the fires now.

F             Am           C               E
The red white and the blue has always been what led you,
F           Am                 C                 E
if you dont do sumthing theyll steal it all from under you.

E               C
Board decisions bored children,
watch the world through gunsight eyes,
hijack train wrecks sell the wheels,
no way out unless u steal it all.

F             Am           C               E
The red white and the blue has always been what led you,
F         Am                  C                 E
if you dont do something they'll steal it all from under you,
F           Am             C               E
you beat us black and blue were cumin back 2 find you!

-----------------------------------------------------------------|
-----------------------------------------------------------------|
-2-2-2-2-2-2-2-2-2-2-2-2-2-2-2-2-4-4-4-4-4-4-4-4-4-4-4-4-4-4-4-4-|
-0-0-0-0-3-0-0-0-3-0-0-0-3-0-0-0-0-0-0-0-5-0-0-0-5-0-0-0-5-0-0-0-|
-----------------------------------------------------------------|
-----------------------------------------------------------------|

-----------------------------------------------------------------|
-----------------------------------------------------------------|
-6-6-6-6-6-6-6-6-6-6-6-6-6-6-6-6-7-7-7-7-7-7-7-7-7-7-7-7-7-7-7-7-|
-0-0-0-0-7-0-0-0-7-0-0-0-7-0-0-0-0-0-0-0-9-0-0-0-9-0-0-0-9-0-0-0-|
-----------------------------------------------------------------|
-----------------------------------------------------------------|

F             Am           C               E
The red white and the blue has always been what led you,
F           Am                 C                 E
if you dont do sumthing theyll steal it all from under you
Tap to rate this tab
 
# A B C D E F G H I J K L M N O P Q R S T U V W X Y Z