Song name
# A B C D E F G H I J K L M N O P Q R S T U V W X Y Z

Hope Of The States - Static In The Cities tab

Help us improve GuitareTab! Take a short survey!
Awesome song possibly one of the bands best and most favoured by the fans can
be found as a B-side to Enemies/Friends or on one of their old demos
Intro

e|--------------------------------------------3-2-------------2---3---3---5-0-|
b|-----3---5---3-----------1-0------0--------------0---0----0---0---0---0-----|
g|---4---4---4---4-------2------2----------0---------0------------------------|
d|-2-------------------2----------2------2------------------------------------|
a|-------------------0-----------------3-----------------0--------------------|
E|----------------------------------------------------------------------------|


Em___Am____C__________Am
In sts'ikel the earth came rain down on us.
Em____Am__C__________Am
Let the fires burn 'til the cities fall.
Em_____________Am______C
Go be with your family and friends,
________Am________________Em
Hand in hand when it all ends.
_________________Am__________C
Making peace with everyone you know.
________Am_______Em
Forget it all just let go.
__________________________D
These ain't the last days at all,
__________________________F#m
But I'm trying to send out a call.
_____________________C___________________Em
Everyone together can save the world when it falls.

Em_________Am__________C
I don't even remember how it was,
______Am__________Em
Before everything was lost.
__________Am___________C
I try to think of how it used to be,
_______Am_______________Em
But this world has stole my memory.
______________________D
These ain't the last days at all,
_______________________F#m
But I'm trying to send out a call.
___________________C________________Em
Everyone together can save the world when it falls.
_______________________D
These ain't the last days at all,
________________________F#m
But I'm trying to send out a call.
___________________C_________________Em
Everyone together can save the world when it falls.

bridge bit at about 3:19
e----------------10-10---------------------------------------------|
b--12----12-12-------12-12---12-12------------12-12----------------|
g----------------------------------------14-14---------------------|
d------------------------------------------------------------------|
a------------------------------------------------------------------|
E------------------------------------------------------------------|

e---------10-10-----------------------------------------------|
b--12-12-------12-12-10-10-8-8-7-7-8-8/12---------------------|
g-------------------------------------------------------------|
d-------------------------------------------------------------|
a-------------------------------------------------------------|
E-------------------------------------------------------------|

strumming bit after loud bit 6mins into song
C_______________Gm

still some left to figure out but this is pretty much perfect in most parts

Courtesy of Thee Hope of the States Forum
Related for Static In The Cities tab