Guitaretab - guitar tabs
Song name
# A B C D E F G H I J K L M N O P Q R S T U V W X Y Z

Hope Of The States - Sing It Out tab

verse

e-------------------------------------------------------------------|
b-------------------------------------------------------------------|
g-------------------------------------------------------------------|
d-4444444444444444-6666666666666666----------------7777777766666666-|
a----------------------------------4444444444444444-----------------|
e-------------------------------------------------------------------|

chorus

F#minor
e---------------------|
b---------------------|
g-------------66------|
d-77-66--66-77--66-77-|
a------99-------------|
e---------------------|

C#7
e-------------------------|
b-------------------------|
g-------------------------|
d-99-66-77-99-66-77-99-66-|
a-------------------------|
e-------------------------|

Dmajor
e--------------------|
b--------------------|
g---66-----66-----66-|
d-77--66-77--66-77---|
a--------------------|
e--------------------|
[ Tab from: http://www.guitaretab.com/h/hope-of-the-states/85828.html ]
C#7
e-------------------------------------|
b-------------------------------------|
g---------77-66-----------------------|
d-66-77-99----------------------------|
a---------------8888-9999-11-11-11-11-|
e-------------------------------------|

last chorus adds this

e-14-14-14-14-14-14-14-14-14-14-14-14-14-14-14-14-|
b-------------------------------------------------|
g-11-11-11-11-11-11-11-11-11-11-11-11-11-11-11-11-|
d-------------------------------------------------|
a-------------------------------------------------|
e-------------------------------------------------|

e-16-16-16-16-16-16-16-16-16-16-16-16-16-16-16-16-|
b-------------------------------------------------|
g-13-13-13-13-13-13-13-13-13-13-13-13-13-13-13-13-|
d-------------------------------------------------|
a-------------------------------------------------|
e-------------------------------------------------|

e-17-17-17-17-17-14-14-14-|
b-------------------------|
g-14-14-14-14-14-11-11-11-|  x2
d-------------------------|
a-------------------------|
e-------------------------|

e-17-16-14-13----------------------|
b-------------15-15-15-14-12-14-14-|
g-14-13-11-10----------------------|
d-------------12-12-12-11-9--11-11-|
a----------------------------------|
e----------------------------------|

enjoy, great group, sadly missed, go check out troubles (their new group)
Related for Sing It Out tab
Sing It Out chords by Hope Of The States