Song name
# A B C D E F G H I J K L M N O P Q R S T U V W X Y Z

Hope Of The States - Thee Seventies Song tab

Thee Seventies Song

e-----7--------7-------7-------7-------7-------7-------7-------7---|
B---8--------8-------7-------7-------7-------7-------7-------7-----|
G-9--------9-------8-------8-------7-------7-------8-------8-------|
D------------------------------------------------------------------|
A------------------------------------------------------------------|
E------------------------------------------------------------------|

It's a couple of bars of that then this.

e-----7-------7-------7-------7-------7-------7---|
B---8---8---8---8---7---7---7---7---7---7---7---7-|
G-9-------9-------8-------8-------7-------7-------|
D-------------------------------------------------|
A-------------------------------------------------|
E-------------------------------------------------|

The second guitar tremelo picks these notes underneath.


D|2~~~~~~~9~~~~~~~12~~~~~~~9~~~~~~~|

When it builds into the next part I usually ass the octave on the tremelo picked part 
so;

B|5~~~~~~~12~~~~~~~15~~~~~~~12~~~~~~~|
G|xxxxxxxxxxxxxxxxxxxxxxxxxxxxxxxxxxx|
D|2~~~~~~~9~~~~~~~~12~~~~~~~9~~~~~~~~|

Then it stops and does some sort of random picking that I play as so.

e|---------------------7--------------------------------7---------|
B|--------8--------------8---8------------7---------------7-------|
G|---9-------9-------------9---------8--------8-------8-----8-----|
D|--9---9---9-----9-----------------9--9----9---9--9----------9---|
A|7-------------7--7----------------------------------------------|
E|--------------------------------7---------------7---------------|

e|------7---------------7-------------------------------7---------||
B|---7-----7---------7-----7--------------7---------------7-------||
G|--7--7--7---7-----7--7--7---7------8--------8-------8-----8-----||
D|----------------7-----------------9--9----9---9--9----------9---||
A|5---------------------------------------------------------------||
E|--------------------------------7---------------7---------------||


The rythym is meant to be disjointed slightly its not an exact tab but stay in the 
and it'll sound about right. The rest of the song is made of variations of these and the 
Which are;


Em

e|7
B|8
G|9
D|9
A|7
E|x

which is sometimes played as this. There are multiple guitars so it'll probably be a 
of the two.

e|0
B|0
G|0
D|2
A|2
E|0


B

e|7
B|7
G|8
D|9
A|9
E|7


D

e|7
B|7
G|7
D|7
A|5
E|x

I'm not entirely sure about the D chord as it's usually an A on the high E string rather 
a B but it's deffinately that for the picked parts so I would assume the chords have it 
as well.
Tap to rate this tab
# A B C D E F G H I J K L M N O P Q R S T U V W X Y Z