Song name
# A B C D E F G H I J K L M N O P Q R S T U V W X Y Z

Hope Of The States - 101st Lament tab

Help us improve GuitareTab! Take a short survey!
I found a piano score for this and I've adapted it for guitar.

E|---------------------------------------------------------------|
B|---------------------------------------------------------------|
G|---------------------------------------------------------------|
D|----------10-8----------------10-8------------------10-8-------|
A|8-11-8-11------11-8-7-11-7-11------11-7----11----11------11----|
E|----------------------------------------11----11------------11-|


E|------------------||
B|------------------||
G|------------------||
D|-------------10-8-||
A|---11-----11------||
E|10----10----------||


There's another little bit where it does this after the main riff.

E|--------------------------------------||
B|--------------------------------------||
G|--------------------------------------||
D|--------------------------------------||
A|--11---11---11---11----11----11----11-||
E|9----9----9----9----11----12----12----||


Related for 101st Lament tab