Song name
# A B C D E F G H I J K L M N O P Q R S T U V W X Y Z

Hope Of The States - Angles Over Kilburn tab

This sounds about right to me. It's not great but it's about right.

E|--------------------------------------------------------|
B|--------------------------------------------------------|
G|--------------------------------------------------------|
D|--------------------------------------------------------|
A|8----8----8----8----7---7---7---7---8----8----8----8----|
E|--10---10---10---10---8---8---8---8---10---10---10---10-|

E|-------------------||
B|-------------------||
G|-------------------||
D|-------------------||
A|10-7-10-7-8-7------||
E|--------------10-7-||

Then there's some messing around with a G chord. And this little bit.

E|----------------------------------------------------------------||
B|----------------------------------------------------------------||
G|----------------------------------------------------------------||
D|----5-------5-------5-------5-------5-------5-------5-------5---||
A|5-7---7---7---7---7---7---7---7---7---7---7---7---7---7---7---7-||
E|--------8-------7-------8-------7-------8-------7-------5-------||



Tap to rate this tab
# A B C D E F G H I J K L M N O P Q R S T U V W X Y Z