Song name
# A B C D E F G H I J K L M N O P Q R S T U V W X Y Z

Hope Of The States - War Is Naughty tab

I found this on the HOTS forum and it sounded faarly acurate so I added it here.


Verse 

e|-------------------------------|
B|-------------------------------|
G|-------------------------------|
D|------0----0----0-----4-5-4----| 
A|-----2----4----5-------5-5-5---|
E|-------------------------------|
 
Bridge

e|-------------------------------------------------------------------| 
B|-------------------------------------------------------------------|
G|-------------------------------------------------------------------| 
D|-----5---5---5---5---5---5---5---5---5---5---5---5---5---5---5---5-|
A|---7---7---7---7---7---7---7---7---6---6---6---6---6---6---6---6---|
E|-------------------------------------------------------------------| 

Chorus 

e|-------------------------------------|
B|---3333-3333--3333--3----------------| 
G|---2244-2244--2244--2----------------|
D|------------------------------0-2-4--|
A|-------------------------------------| 
E|-------------------------------------|



Tap to rate this tab
# A B C D E F G H I J K L M N O P Q R S T U V W X Y Z