Guitaretab - guitar tabs
Song name
# A B C D E F G H I J K L M N O P Q R S T U V W X Y Z

Hope Of The States - Industry tab

-------------------------------------------------------------------------------
			     Industry- Hope of The States
-------------------------------------------------------------------------------
Tabbed by: Daryl Hughes
Email: amused_dude@hotmail.com

Tuning: Standard EADGBE

This is the first tab Iíve posted on UG and Iím sure itís not perfect. Itís quite hard 
work out every note because the bass is often more prominent and not always the same.


Introduction
e|---------------------------------------------------------------------------|
B|---------------------------------------------------------------------------|
G|---------------------------------------------------------------------------|
D|--7-7-7-7-7-7-7-7----------------------------------------------------------|
A|-5-5-5-5-5-5-5-5-----------------------------------------------------------|
E|---------------------------------------------------------------------------|

Verse #1- This is a plague on all our homesÖ
e|---------------------------------------------------------------------------|
B|---------------------------------------------------------------------------|
G|---------------------------------------------------------------------------|
D|--7-7-7-7-7-7-7-7-5-5-5-5-10-10-10-10--------------------------------------|
A|-5-5-5-5-5-5-5-5-3-3-3-3-7--7--7--7----------------------------------------|
E|---------------------------------------------------------------------------|
  x2
[ Tab from: http://www.guitaretab.com/h/hope-of-the-states/91170.html ]
At this point a second guitar starts playing power chords where the first guitar just 
fifths.
I also think there are some octaves and even sixths in this bit but I canít quite pin 
down
e|---------------------------------------------------------------------------|
B|---------------------------------------------------------------------------|
G|---------------------------------------------------------------------------|
D|--7-7-7-7-7-7-7-7-5-5-5-5-5-5-5-5-4-4-4-4-4-4-4-4-3333333333333p2p0--------|
A|-5-5-5-5-5-5-5-5-3-3-3-3-3-3-3-3-2-2-2-2-2-2-2-2---------------------------|
E|---------------------------------------------------------------------------|

Chorus
e|---------------------------------------------------------------------------|
B|---------------------------------------------------------------------------|
G|-7777777777777777----------------7777777777777777--------55555555----------|
D|-7777777777777777555555555555555577777777777777775555555555555555----------|
A|-5555555555555555555555555555555555555555555555555555555533333333----------|
E|-----------------3333333333333333----------------33333333------------------|

Lead guitar plays this
e|---------------------------------------------------------------------------|
B|-------------------------8b10-10-10-10-10-10-10----------------------------|
G|---------------------------------------------------------------------------|
D|---------------------------------------------------------------------------|
A|---------------------------------------------------------------------------|
E|---------------------------------------------------------------------------|

Repeat Verse and Chorus

Instrumental
D|--7-7-7-7-|    |--10-10-10-10-|    |--12-12-12-12-|    |---14--14--14--14-|
A|-5-5-5-5--|    |-7--7--7--7---|    |-8--8--8--8---|    |-10--10--10--10---|
E|----------|    |--------------|    |--------------|    |------------------|
  x4              x4                  x4                  x2

D|15-15-15-15-15-15-15-15-15-15-15-15-15p14p12-|


Repeat Chorus twice


| p  pull-off
| b  bend
===============================================================================
Related for Industry tab