Song name
# A B C D E F G H I J K L M N O P Q R S T U V W X Y Z

Hope Sandoval - On The Low tab

Help us improve GuitareTab! Take a short survey!
----------------------------------------------------------------------------
Band: Hope sandoval and the Warm Inventions
(this is their official name)
Song: On the Low
Tabbed by: manuel
email:jedichew007@aol.com
Tuning: Standard

Notes:
1. This is my first tab that I write out in this place.
   but I'm sure about this tab.
2. There is another guitar palying who does a mix of picking and riffs
   but this part is the short beat rythm.
3. Listen to the song to get a better feel at the timing and the ringing
   and how short the strumming is used.
4. The single notes I've added are to maintain rythm and for a low key base.
   Mostly for this part its the strumming that is used.
5. Enjoy
----------------------------------------------------------------------------

Intro:

e|-------3---------3---------------0-----|
B|-------3---------3---------------0-----|
G|-------4---------4---------------0-----|
D|-------5---------5---------------2-----|
A|---------------------------------------|
E|--3-3-------3-3--------0---------------|

Main riff
Repeat 4 times

e|-------3---------3---------0---------0---------1---------1----|
B|-------3---------3---------0---------0---------3---------3----|
G|-------4---------4---------0---------0------2--2------2--2----|
D|-------5---------5---------2---------2----0---------0---------|
A|------------------------2---------2---------------------------|
E|--3-3-------3-3-------0---------0-----------------------------|


e|-------3---------3---------1---------1---------5---------5----|
B|-------5---------5---------3---------3---------5---------5----|
G|-------4---------4------2--2------2--2---------5---------5----|
D|----5---------5-------0---------0--------------7---------7----|
A|--3---------3-------------------------------7---------7-------|
E|------------------------------------------5---------5---------|


You play this part after the 4th time:

e|-------5--5--5---------5--5--5----------5--5--5----|
B|-------5--5--5---------5--5--5----------5--5--5----|
G|-------5--5--5---------5--5--5----------5--5--5----|
D|-------7--7--7---------7--7--7----------7--7--7----|
A|----7---------------7----------------7-------------|
E|--5---------------5---------------5----------------|

Back to main riff (Play 4 times again)

Then you play this again after the 4th time:

e|-------5--5--5---------5--5--5----------5--5--5----|
B|-------5--5--5---------5--5--5----------5--5--5----|
G|-------5--5--5---------5--5--5----------5--5--5----|
D|-------7--7--7---------7--7--7----------7--7--7----|
A|----7---------------7----------------7-------------|
E|--5---------------5---------------5----------------|


From here, you play the intro part again
and then you continue playing the main riff
as needed according to the song.

When the song is about to finish you play this again,
but listen to the song to see how many times...


e|-------5--5--5---------5--5--5----------5--5--5----|
B|-------5--5--5---------5--5--5----------5--5--5----|
G|-------5--5--5---------5--5--5----------5--5--5----|
D|-------7--7--7---------7--7--7----------7--7--7----|
A|----7---------------7----------------7-------------|
E|--5---------------5---------------5----------------|


End

e|--5
B|--5
G|--5
D|--7
A|--7
E|--5


thanks for your time. its a great song.
comment for any feedback!
Related for On The Low tab