Song name
# A B C D E F G H I J K L M N O P Q R S T U V W X Y Z

Hope Sandoval - Wild Roses tab

Band: Hope Sandoval and the Warm Inventions
Song: Wild Roses
Tabbed by: jedichewy
Standard tuning

Note: I've tried to make it as easy and clear as possible.

Enjoy!

Intro + Verse
e|----------0---------------------------------------------|
B|----3-------3---3---------0---------0-----0-------------|
G|------2-----------2---2-----0---0-----0-----------------|
D|--0-----0-----------------------------------------------|
A|--------------4-----4---3-----3---3-----3---------------|
E|--------------------------------------------------------|

Repeat as needed for verses

Chorus

Note:
There is some picking involved with the
guitars but these are the chords for it.
You can strum/pick to your liking.

  Bm                        C

e|---------2------------------------0--------------------|
B|---3-------3---3-----3------1-------1---1-----1--------|
G|-----4-----------4------------0-----------0------------|
D|-------4------------------------2----------------------|
A|-2-----------2-----2------3-----------3-----3----------|
E|-------------------------------------------------------|

Repeat for Chorus as needed and end on C

That's it!




Feedback, just say so!
Tap to rate this tab
# A B C D E F G H I J K L M N O P Q R S T U V W X Y Z