Song name
# A B C D E F G H I J K L M N O P Q R S T U V W X Y Z

Hope Sandoval - Blanchard tab

Hope Sandoval and The Warm Inventions
Album: Through The devil Softly
Song: Blanchard
Tabbed by: jedichewy

Tuning: Standard

Note: This is just the basic rhythm for the guitar since the other guitar has a lot of variations.

Intro + Verse

Please listen to the song for the strumming pattern.

Repeat as needed.

e|---0--------0--------0--------0-----------|
B|---0--------0--------0--------0-----------|
G|---9--------7--------5--------4-----------|
D|---9--------7--------5--------4-----------|
A|---0--------0--------0--------0-----------|
E|------------------------------------------|

Chorus

e|-3------------0---------------3----------0------------|
B|-0------------0---------------0----------0------------|
G|-0------------0---------------0----------0------------|
D|-0------------2---------------0----------2------------|
A|-2------------2---------------2----------2------------|
E|-3------------0---------------3----------0------------|

   And I'm not                  Gonna say



e|-3------------0---------------3----------------0-----------------0----|
B|-0------------0---------------0----------------0-----------------0----|
G|-0------------0---------------0----------------0-----------------9----|
D|-0------------2---------------0----------------2-----------------9----|
A|-2------------2---------------2----------------2-----------------0----|
E|-3------------0---------------3----------------0----------------------|
   I forget                   Cause I remember              everyday...

Back to the verse riff.


This is pretty much the form of the song, just repeat the intro part for the ending 
since the song fades.

Feedback? Just comment!
Tap to rate this tab
 
# A B C D E F G H I J K L M N O P Q R S T U V W X Y Z