Song name
# A B C D E F G H I J K L M N O P Q R S T U V W X Y Z

Hope Sandoval - Come Down tab

"Come Down", early recording from 1990 when Sandoval was part of a duo ("Going Home") with Sylvia Gomez
Use capo if you want to

The song is two part repeated till the end

Main Part :

e|---------------------------------------------|
B|---------0-----0----0----0-------------------|
G|-------0-----0----0----0---------------------|
D|-----2-----3----0----2-----------------------|
A|---------------------------------------------|
E|---------------------------------------------|

And then a variation :

e|-------------------------------|
B|---------0-----0-----0---------|
G|-------0-----0-----0-----------|
D|-------------------------------|
A|-----3-----2-----0-----(0)-----|
E|-------------------------------|
Tap to rate this tab
# A B C D E F G H I J K L M N O P Q R S T U V W X Y Z