Song name
# A B C D E F G H I J K L M N O P Q R S T U V W X Y Z

Hopeless - Dear World tab

Drop D tuning. Guitar 1 Only.

Band: Hopeless
Song: Dear World
Album: Dear World


e-------------------------------------|
B-------------------------------------|
G-------------------------------------|
D-------------------------------------|
A---6p4-6p4-6p4-6p4-7p4-7p4-7p4-7p4---|
D---4---4---4---4---4---4---4---4-----|


e--------------------------------------|
B--------------------------------------|
G--------------------------------------|
D---7---------------9------------------|
A---7---------------9------------------|
D---7-777777777777779-99999999999999---|
      .......         .......


e-------------------------------------|
B-------------------------------------|
G-------------------------------------|
D-------------------------------------|
A---6p4-6p4-6p4-6p4-7p4-7p4-7p4-7p4---|
D---4---4---4---4---4---4---4---4-----|


e-------------------------------------|
B-------------------------------------|
G-------------------------------------|
D-------------------------------------|
A---6-4-6-4-6-4-6-4-7-4-7-4-7-4-7-4---|
D---4-4-4-4-4-4-4-4-4-4-4-4-4-4-4-4---|


e--------------------------------------|
B--------------------------------------|
G--------------------------------------|
D---7---------------9------------------|
A---7---------------9------------------|
D---7-777777777777779-99999999999999---|
      .......         .......

http://www.myspace.com/hopelessmelbourne

http://www.myspace.com/hopelessmelbourne
Tap to rate this tab
 
# A B C D E F G H I J K L M N O P Q R S T U V W X Y Z