Song name
# A B C D E F G H I J K L M N O P Q R S T U V W X Y Z

Hopeless - Warehouse tab

Song: Warehouse
Band: Hopeless
Album: Human

Not sure about what I have at all...
Except for the breakdown bit and the intro.

Drop C# tuning


intro: (figure strum pattern)
--8-------3-------5--------------|
--6-------1-------3--------------|
---------------------------------|
---------------------------------|
---------------------------------|
---------------------------------|

then:
--8-----8-----8---3-----3-----3---5-----5-----5---5-----5-----5----|
----6-6---6-6-------1-1---1-1-------3-3---3-3---3---3-3---3-3---3--|
-------------------------------------------------------------------|
-------------------------------------------------------------------|
-------------------------------------------------------------------|
-------------------------------------------------------------------|


then it's something like this:
--------------------------|
--------------------------|
--------------------------|
--------------------------|
--3--4--5--4-3----8-8-8\--|
--3--4--5--4-3----8-8-8\--|


meh.


breakdown (figure strums and the small changes yourself)
----------------------------------------------------|
--10-10-10------------------------------------------|
--10-10-10------------------------------------------|
--8--8--8--0-----------0----------------------------|
--8--8--8--0---------0-0---------4-44-444-3-33-333--|
-----------0---------0-0---------4-44-444-3-33-333--|
                     .


This bit's so wrong...
---------------------------------------------------------------------|
---------3----------------3----------------0---------------3---------|
-----5-----5----------5-----5----------2-----2----------5-----5------|
---3---3-----3------3---3-----3------0---0-----0------3---3-----3----|
-3-------------3--3-------------3--0-------------0--3-------------3--|
---------------------------------------------------------------------|


well, it's pretty crappy, but at least the breakdown sounds good.
May or may not decide to try and do the rest and fix the above...
Peace. Don't bother rating or commenting.
Tap to rate this tab
 
# A B C D E F G H I J K L M N O P Q R S T U V W X Y Z