Song name
# A B C D E F G H I J K L M N O P Q R S T U V W X Y Z

Hopes Die Last - I Belong To The Skies tab

Help us improve GuitareTab! Take a short survey!
Hi there.
This is my first tab of I Belong To The Skies, my favorite song of this awesome band!!

Remember, this is my first tab, and if you  find something wrong please tell me.


Intro
Gtr 1
0:00
e|--------5------------4-------|
B|---5--5---5--5--5--5---5-----|
G|--2--2------2--2--2------2---|   (x8)
D|-----------------------------|
A|-----------------------------|
D|-----------------------------|

Gtr 2
0:05
e|-------------------------------------------------|
B|-------------------------------------------------|
G|----------------------------------------99999999-|
D|--44444444444444444444-000000000000000--xxxxxxxx-|
A|--44444444444444444444-000000000000000--77777777-|
D|--44444444444444444444-000000000000000-----------|

e|-----------------------------|--5h4-0--|
B|-----------------------------|---------|
G|-----------------------------|---------|
D|--44444444444444444444--0----|---------|
A|--44444444444444444444--0----|---------|
D|--44444444444444444444--0----|---------|

Gtr 1
0:28          
"I look so cool from these heights and I feel it running through out my veins"
e|--------------------------------------------|
B|-10-10-10101010-9999999-7-7-7-9999999-------|
G|--9--9--9-9-9-9-9999999-9-9-9-9999999--(x3)-|
D|--------------------------------------------|
A|--------------------------------------------|
D|--------------------------------------------|

Gtr 2
e|--------------------------------------------------------------|
B|--------------------------------------------------------------|
G|--------------------------------------------------------------|
D|-4-4-4-4-4-4-4-4-4-4-4-4-4-4-4-4-4-4-4--2—2-2-2-2-2-2-2-2-2-2-|
A|-4-4-4-4-4-4-4-4-4-4-4-4-4-4-4-4-4-4-4--2—2-2-2-2-2-2-2-2-2-2-|
D|-4-4-4-4-4-4-4-4-4-4-4-4-4-4-4-4-4-4-4--2—2-2-2-2-2-2-2-2-2-2-|

Gtr 1 and Grt 2
0:43
"And I'll never say because I know this smile is fake"
e|-------------------------------|
B|-------------------------------|
G|--------14--------14-13/16-14--|
D|--0000---x--00-0---x--x--x--x--|
A|--0000--12--00-0--12-11/14-12--|
D|--0000------00-0---------------|
    ....      .. .

Pre-Chorus

Gtr 1
0:50
"You can't stop my running away"
e|---------------------------------------------|
B|---------------------------------------------|
G|-141414141414141414141414-131313131313131313-|
D|--xxxxxxxxxxxxxxxxxxxxxxx--xxxxxxxxxxxxxxxxx-|
A|-121212121212121212121212-111111111111111111-|
D|---------------------------------------------|

0:55
"You tear up my wings during these years"
e|-5-4-0--5-4-0--5-4-0--5-4-0--5-4-0----|
B|----------------------------------(x3)|
G|--------------------------------------|
D|--------------------------------------|
A|--------------------------------------|
D|--------------------------------------|

Gtr2
0:50
e|-----------------------------|
B|-----------------------------|
G|-----------------------------|
D|-44444444444444-222222222222-|
A|-44444444444444-222222222222-|
D|-44444444444444-222222222222-|

0:55
e|-------------------------------------------------------|
B|-------------------------------------------------------|
G|-------------------------------------------------------|
D|-----------------------------------------66666-7777777-|
A|-5555555555555555555-99999999999999-7777-77777-7777777-|
D|-------------------------------------------------------|
   ................... .............. ....

Chorus

Gtr 1
1:06
"And if my breath will go"
e|--------5------------4-------|
B|---5--5---5--5--5--5---5-----|
G|--2--2------2--2--2------2---| (x8)
D|-----------------------------|
A|-----------------------------|
D|-----------------------------|

Gtr2
e|---------------------------------------------|--5h4-0-|
B|---------------------------------------------|--------|
G|---------------------------------------------|--------|
D|--00000000000000000-44444444444444444------0-|--------|
A|--00000000000000000-44444444444444444-(x2)-0-|--------|
D|--00000000000000000-44444444444444444------0-|--------|


Gtr 1
1:31
"I take a breath and I can feel the summer in the air"
e|-----------------------------------|
B|--------10-10-10-9-9-9-9-9---------|
G|---9--9--------------------9-9-9-9-|
D|--7--7-----------------------------|
A|-----------------------------------|
D|-----------------------------------|
    . .. . .  .  . . . . . . . . . .
                  
                  Release The Palm Muting
e|-----------------------------------|
B|--------10-10-10-9-9-9-9-9---------|
G|---9--9--------------------9-9-9-9-|
D|--7--7-----------------------------|
A|-----------------------------------|
D|-----------------------------------|
    . .. . .  .  . 

Gtr 2
1:31
e|--------|
B|--------|
G|--------|
D|-4-2-4--|
A|-4-2-4--|
D|-4-2-4--|

Gtr 1 and Grt 2
1:48
"She said I'll never give you a chance"
e|-------------------------------|
B|-------------------------------|
G|--------14--------14-13/16-14--|
D|--0000---x--00-0---x--x--x--x--|
A|--0000--12--00-0--12-11/14-12--|
D|--0000------00-0---------------|
    ....      .. .

Pre-Chorus

Gtr 1
"Right now I am getting it all back"
e|---------------------------------------------|
B|---------------------------------------------|
G|-141414141414141414141414-131313131313131313-|
D|--xxxxxxxxxxxxxxxxxxxxxxx--xxxxxxxxxxxxxxxxx-|
A|-121212121212121212121212-111111111111111111-|
D|---------------------------------------------|

"You tear up my wings during these years"
e|-5-4-0--5-4-0--5-4-0--5-4-0--5-4-0----|
B|----------------------------------(x3)|
G|--------------------------------------|
D|--------------------------------------|
A|--------------------------------------|
D|--------------------------------------|

Gtr2
e|-----------------------------|
B|-----------------------------|
G|-----------------------------|
D|-44444444444444-222222222222-|
A|-44444444444444-222222222222-|
D|-44444444444444-222222222222-|

e|-------------------------------------------------------|
B|-------------------------------------------------------|
G|-------------------------------------------------------|
D|-----------------------------------------66666-7777777-|
A|-5555555555555555555-99999999999999-7777-77777-7777777-|
D|-------------------------------------------------------|
   ................... .............. ....

Chorus

Gtr 1
"And if my breath will go"
e|--------5------------4-------|
B|---5--5---5--5--5--5---5-----|
G|--2--2------2--2--2------2---| (x8)
D|-----------------------------|
A|-----------------------------|
D|-----------------------------|


Gtr2
e|---------------------------------------------|
B|---------------------------------------------|
G|---------------------------------------------|
D|--00000000000000000-44444444444444444------0-|
A|--00000000000000000-44444444444444444-(x2)-0-|
D|--00000000000000000-44444444444444444------0-|

Gtr 1
2:31                    
e|--7-----------------|
B|----10---10---------|
G|-------9----9—(x18)-|
D|--------------------|
A|--------------------|
D|--------------------|

Gtr2
2:38                2:55
e|-----------------|----------------------------------------|
B|-----------------|----------------------------------------|
G|-----------------|----------------------------------------|
D|--22-44-0--------|-000000000000000-222-44444-00000000-----|
A|--22-44-0—(x4)---|-000000000000000-222-44444-00000000-----|
D|--22-44-0--------|-000000000000000-222-44444-00000000-----|
                     ...............




Gtr 1
3:08
"So far away from there So far away... " (3:19)
e|----------------------------------|---5---5---5---5---5---5---5--|
B|----------------------------------|-9---9---9---9---9---9---9----|
G|--1414141414-13131313131313-------|------------------------------|
D|---xxxxxxxxx--xxxxxxxxxxxxx—(x4)--|------------------------------|
A|--1212121212-11111111111111-------|------------------------------|
D|----------------------------------|------------------------------|

Gtr 2
3:22
"AND IF... "
e|-------|------|
B|-------|--\9--|
G|-------|--\9--|
D|--0-0--|--\7--|
A|--0-0--|------|
D|--0-0--|------|

Chorus
Gtr2

e|------------------------------------------|
B|------------------------------------------|
G|------------------------------------------|
D|--00000000000000000-44444444444444444-----|
A|--00000000000000000-44444444444444444-(x4-|
D|--00000000000000000-44444444444444444-----|

"And if my breath will go"
e|--------5------------4-------|
B|---5--5---5--5--5--5---5-----|
G|--2--2------2--2--2------2---| (x8)
D|-----------------------------|
A|-----------------------------|
D|-----------------------------|

Outro

e|---------|-5h4-0-|
B|---------|-------|
G|---------|-------|
D|--2—4--0-|-------|
A|--2—4--0—|-------|
D|--2—4--0-|-------|

If this part is very difficult for you:

e|--------5------------4-------|
B|---5--5---5--5--5--5---5-----|
G|--2--2------2--2--2------2---|
D|-----------------------------|
A|-----------------------------|
D|-----------------------------|

You can try This:
e|------------------------------|
B|----------10------------9-----|
G|----9---9----9--9--9--9---9---|
D|--7---7--------7--7--7-----7--|
A|------------------------------|
D|------------------------------|

| /  slide up
| \  slide down
| h  hammer-on
| p  pull-off
| ~  vibrato
| +  harmonic
| x  Mute note
===============================================================================
Related for I Belong To The Skies tab