Song name
# A B C D E F G H I J K L M N O P Q R S T U V W X Y Z

Hopesfall - Per Sempre Marciamo tab

Band: .hopesfall.
Song: Per Sempre Marciamo
Album: A Types
Tabbed by: choke383
Drop D Tuning: ebGDAD


Left Guitar

E|10-0-----9-0-----10-0-----9-0------|
B|-----0-7-----0-7------0-7-----0-7--|
G|-----------------------------------|
D|-----------------------------------|
A|-----------------------------------|
D|-----------------------------------|x9


0:39
E|---------------------------------|
B|---------------------------------|
G|-----12------12------12------12--|
D|9-10----9-10----9-10----9-10-----|
A|---------------------------------|
D|---------------------------------|x12


1:13
E|---------------------------|
B|---------------------------|
G|---------------------------|
D|9-/10--5-/9--7-/12---------|
A|--------------------9-/10--|
D|---------------------------|


1:17
E|-----------------------------|
B|-----------------------------|
G|-----------------------------|
D|9h10p9----7-h9-/10-/12-------|
A|-------10--------------9h10--|
D|-----------------------------|x8


1:40
E|---------------------------------|
B|---------------------------------|
G|-----12------12------12------12--|
D|9-10----9-10----9-10----9-10-----|
A|---------------------------------|
D|---------------------------------|x12


2:15
E|---------------------------|
B|---------------------------|
G|---------------------------|
D|9-/10--5-/9--7-/12---------|
A|--------------------9-/10--|
D|---------------------------|


2:19
E|-----------------------------|
B|-----------------------------|
G|-----------------------------|
D|9h10p9----7-h9-/10-/12-------|
A|-------10--------------9h10--|
D|-----------------------------|x12

E|--------------|
B|--------------|
G|--------------|
D|--------------|
A|9-9-9-9-9-9~--|
D|--------------|


3:15
E|---------------------------------------------------------------------|
B|---------------------------------------------------------------------|
G|---------------------------------------------------------------------|
D|------11-----9----------7-----5----------11-----9----------7-----4b--|
A|--9--------9--------5-------5--------9--------9--------5-------5-----|
D|9---9----9--------5---5---5--------9---9----9--------5---5---5-------|x2


3:45
E|10-0-----9-0-----10-0-----9-0------|
B|-----0-7-----0-7------0-7-----0-7--|
G|-----------------------------------|
D|-----------------------------------|
A|-----------------------------------|
D|-----------------------------------|x16


4:48
E|-----------------------------------------------|
B|-----------------------------------------------|
G|-------9---------------------------------------|
D|---------------12---------------11--12-h14-16--|
A|--12--------12--------9-/10-/12----------------|
D|9----9----9------------------------------------|x4



Left Guitar


0:04
E|-------------------------------------------------------------|
B|-------------------------------------------------------------|
G|-------------------------------------------------------------|
D|22--2--2-22-2--99--9--9-99-9--55--5--5-55-5--55--5--5-55-54--|
A|22--2--2-22-2--99--9--9-99-9--55--5--5-55-5--55--5--5-55-54--|
D|22--2--2-22-2--99--9--9-99-9--55--5--5-55-5--55--5--5-55-54--|x2


0:38
E|--------------------------------------------------------------------------------|
B|--------------------------------------------------------------------------------|
G|--------------------------------------------------------------------------------|
D|--------------------------------------------------------------------------------|
A|--------------------------------------------------------------------------------|
D|2-2-2-2-2-2-2-2-2-2-2-2-2-2-2-4-5-5-5-5-5-5-5-0-0-0-0-0-0-0-0-0-9-9-9-9-9-9-9-9-|

E|-------------------------------------------------|
B|-------------------------------------------------|
G|-------------------------------------------------|
D|-------------------------------------------------|
A|-------------------------------------------------|
D|9-9-9-9-9-9-9-0-7-7-7-7-7-7-7-7-7-7-7-7-7-7-7-0--|x2

E|---------------------------------------------------------------------------------|
B|---------------------------------------------------------------------------------|
G|9-9-9-9-9-7-7--------------------------------------------------------------------|
D|--------------9-9-9-9-9-9-9-9-9-10-10-10-10-10-10-10-10-10-10-10-10-10-10-10-10--|
A|7-7-7-7-7-7-7-7-7-7-7-7-7-7-7-7-7--7--7--7--7--7--7--7--7--7--7--7--7--7--7--7---|
D|---------------------------------------------------------------------------------|


1:17
E|---------------------------------------------------------------------|
B|---------------------------------------------------------------------|
G|---------------------------------------------------------------------|
D|10-10-10-10-10-9-9-9-9-5-5-5-5-5-5-5-7-7-7-7-7-7-7-7-7-7-7-7-7-7-7-7-|
A|10-10-10-10-10-9-9-9-9-5-5-5-5-5-5-5-7-7-7-7-7-7-7-7-7-7-7-7-7-7-7-7-|
D|10-10-10-10-10-9-9-9-9-5-5-5-5-5-5-5-7-7-7-7-7-7-7-7-7-7-7-7-7-7-7-7-|

E|-----------------------------------|
B|-----------------------------------|
G|-----------------------------------|
D|2-2-2-2-2-2-2-2-2-/-5-5-5-5-5-5-5--|
A|2-2-2-2-2-2-2-2-2-/-5-5-5-5-5-5-5--|
D|2-2-2-2-2-2-2-2-2-/-5-5-5-5-5-5-5--|x2


1:42
E|--------------------------------------------------------------------------------|
B|--------------------------------------------------------------------------------|
G|--------------------------------------------------------------------------------|
D|--------------------------------------------------------------------------------|
A|--------------------------------------------------------------------------------|
D|2-2-2-2-2-2-2-2-2-2-2-2-2-2-2-4-5-5-5-5-5-5-5-0-0-0-0-0-0-0-0-0-9-9-9-9-9-9-9-9-|

E|-------------------------------------------------|
B|-------------------------------------------------|
G|-------------------------------------------------|
D|-------------------------------------------------|
A|-------------------------------------------------|
D|9-9-9-9-9-9-9-0-7-7-7-7-7-7-7-7-7-7-7-7-7-7-7-0--|x2

E|---------------------------------------------------------------------------------|
B|---------------------------------------------------------------------------------|
G|9-9-9-9-9-7-7--------------------------------------------------------------------|
D|--------------9-9-9-9-9-9-9-9-9-10-10-10-10-10-10-10-10-10-10-10-10-10-10-10-10--|
A|7-7-7-7-7-7-7-7-7-7-7-7-7-7-7-7-7--7--7--7--7--7--7--7--7--7--7--7--7--7--7--7---|
D|---------------------------------------------------------------------------------|


2:18
E|---------------------------------------------------------------------|
B|---------------------------------------------------------------------|
G|---------------------------------------------------------------------|
D|10-10-10-10-10-9-9-9-9-5-5-5-5-5-5-5-7-7-7-7-7-7-7-7-7-7-7-7-7-7-7-7-|
A|10-10-10-10-10-9-9-9-9-5-5-5-5-5-5-5-7-7-7-7-7-7-7-7-7-7-7-7-7-7-7-7-|
D|10-10-10-10-10-9-9-9-9-5-5-5-5-5-5-5-7-7-7-7-7-7-7-7-7-7-7-7-7-7-7-7-|

E|-----------------------------------|
B|-----------------------------------|
G|-----------------------------------|
D|2-2-2-2-2-2-2-2-2-/-5-5-5-5-5-5-5--|
A|2-2-2-2-2-2-2-2-2-/-5-5-5-5-5-5-5--|
D|2-2-2-2-2-2-2-2-2-/-5-5-5-5-5-5-5--|x2

E|---------------------------------------------------------------------|
B|---------------------------------------------------------------------|
G|---------------------------------------------------------------------|
D|10-10-10-10-10-9-9-9-9-5-5-5-5-5-5-5-7-7-7-7-7-7-7-7-7-7-7-7-7-7-7-7-|
A|10-10-10-10-10-9-9-9-9-5-5-5-5-5-5-5-7-7-7-7-7-7-7-7-7-7-7-7-7-7-7-7-|
D|10-10-10-10-10-9-9-9-9-5-5-5-5-5-5-5-7-7-7-7-7-7-7-7-7-7-7-7-7-7-7-7-|

E|------------------------------------------------|
B|----------------------------------7-7-7-7-7-7~--|
G|------------------------------------------------|
D|2-2-2-2-2-2-2-2-2-/-5-5-5-5-5-5-5---------------|
A|2-2-2-2-2-2-2-2-2-/-5-5-5-5-5-5-5---------------|
D|2-2-2-2-2-2-2-2-2-/-5-5-5-5-5-5-5---------------|


3:15
E|-----------------------------------------------|
B|-----------------------------------------------|
G|-------9---------------------------------------|
D|---------------12---------------11--12-h14-16--|
A|--12--------12--------9-/10-/12----------------|
D|9----9----9------------------------------------|x4


3:47
E|-------------------------------------------------------------|
B|-------------------------------------------------------------|
G|-------------------------------------------------------------|
D|22--2--2-22-2--99--9--9-99-9--55--5--5-55-5--55--5--5-55-54b-|
A|22--2--2-22-2--99--9--9-99-9--55--5--5-55-5--55--5--5-55-54b-|
D|22--2--2-22-2--99--9--9-99-9--55--5--5-55-5--55--5--5-55-54--|x4


4:48
E|---------------------------------------------------------------------|
B|---------------------------------------------------------------------|
G|---------------------------------------------------------------------|
D|------11-----9----------7-----5----------11-----9----------7-----4b--|
A|--9--------9--------5-------5--------9--------9--------5-------5-----|
D|9---9----9--------5---5---5--------9---9----9--------5---5---5-------|x3



Any comments, questions or jokes send to style444@hotmail.com
Tap to rate this tab
 
# A B C D E F G H I J K L M N O P Q R S T U V W X Y Z