Song name
# A B C D E F G H I J K L M N O P Q R S T U V W X Y Z

Hopesfall - Head General Hospital tab

This is only the intro. Whenever I can learn the rest of the song, I'll post it up. It 
me about 5 minutes to learn it. It shouldn't be that hard.

Guitar 1
e|--------------------|
B|------5-----5-------|
G|--------------------|  2X
D|----6-----6-----6---|
A|--4-----4-----4-----|
E|--------------------|


Guitar 2
e|--------------------|
B|--------------------|
G|--------------------|  2X
D|--------------------|
A|--------------------|
E|--------------------|

Then the second guitar comes in...

e|--------------------|
B|------5-----5-------|
G|--------------------|  2X
D|----6-----6-----6---|
A|--4-----4-----4-----|
E|--------------------|


e|--------------------|
B|--------------------|
G|----9-8---9-8-------|  2X
D|----------------9---|
A|--7-----7-----7-----|
E|--------------------|
Tap to rate this tab
 
# A B C D E F G H I J K L M N O P Q R S T U V W X Y Z