Guitaretab - guitar tabs
Song name
# A B C D E F G H I J K L M N O P Q R S T U V W X Y Z

Hopesfall - Andromeda tab

This is the tab for Andromeda by Hopesfall, out of their amazing The Satellite Years.
Guitar 1:(played throughout of the song, the ending uses the same chords but different 
pattern.)
e----------------------------------------------------------------------------
b-5-5-5-5---------8-8-8-8------10-10-10-10-----------------------------------
g-5-5-5-5---------7-7-7-7------9--9--9--9------------------------------------
d-3-3-3-3---------5-5-5-5------7--7--7--7------------------------------------
a----------------------------------------------------------------------------
e----------------------------------------------------------------------------
Guitar 2:
e----------------------------------------------------------------------------
b-10-8-8--10-8-8--10-8-8-10-8------------------------------------------------
g----------------------------------------------------------------------------
d----------------------------------------------------------------------------
a----------------------------------------------------------------------------
e----------------------------------------------------------------------------
[ Tab from: http://www.guitaretab.com/h/hopesfall/158407.html ]
Guitar 3 (now here's the cool spacey riff):
     b  r            (let that B (12 on the B string) ring)
e--__--__--------------------------------------------------------------------
b-11-12-11------------12-----------------------------------------------------
g---------------11/12--------------------------------------------------------
d----------------------------------------------------------------------------
a----------------------------------------------------------------------------
e----------------------------------------------------------------------------
Guitar 2:
e----------------------------------------------------------------------------
b-17-13-13--17-13-13--17-13--------------------------------------------------
g----------------------------------------------------------------------------
d----------------------------------------------------------------------------
a----------------------------------------------------------------------------
e----------------------------------------------------------------------------
e----------------------------------------------------------------------------
Bass does this throughout, except ending:

g------------------------------------
d------------------------------------
a------------------------------------
e1-1-1-1--3-3-3-3--5-5-5-5--5-5-5-5--
That's it
Related for Andromeda tab