Song name
# A B C D E F G H I J K L M N O P Q R S T U V W X Y Z

Hopesfall - East Of 1989 Battle Of The Bay tab

Artist: Hopesfall
Song: East of 1989; Battle of the bay
Album: Magnetic North
Tabbed By Jose Cruz

Its a shame that Hopesfall no longer exists so i made a 
little tribute to that awesome band by tabbing my favorite
song of the album.

Tuning: Drop Db

b = bend
/ = slide
r = release
p = pull off
^ = half bend

Top is Guitar1 and bottom Guitar2

INTRO ********************************************
Eb|--5--12--5--4--5--4-----5---------------| 
Bb|--5------------5-----5------------------|
Gb|--2------------2------------------------|
Db|--0------------0------------------------|
Ab|--0------------0------------------------|
Db|----------------------------------------|
  |
Eb|----------------------------------------| 
Bb|----------------------------------------|
Gb|--7------6-----7-------6----------------|
Db|----------------------------------------|
Ab|--5------4-----5-------4----------------|
Db|----------------------------------------|


VERSE 1 ********************************************
Eb|----------------------------------------|
Bb|--15-----14----15------14---------------|
Gb|----------------------------------------|
Db|--12-----11----12------11---------------|
Ab|----------------------------------------|
Db|----------------------------------------|
  |
Eb|----------------------------------------|
Bb|----------------------------------------|
Gb|----------------------------------------|
Db|----------------------------------------|
Ab|--5------4-------5-------4--------------|
Db|----------------------------------------|
   ^This part is played with an e-bow... or just use fast picking

Eb|----------------------------------------|
Bb|--3p2---3p2---2---3p2---3p2---2---------|
Gb|------2-----2---------2-----2-----------|
Db|----------------------------------------|
Ab|----------------------------------------|
Db|----------------------------------------|
  |
Eb|----------------------------------------|
Bb|----------------------------------------|
Gb|----------------------------------------|
Db|--11-0-11-0-11-0-11-0-11-0-11-0-11-0----|
Ab|----------------------------------------|
Db|----------------------------------------|


CHORUS 1 ************************************
Eb|----------------------------------------|
Bb|-----5-3-2-------5-3--------------------|
Gb|----------------------------------------|
Db|--00----------44------------------------|
Ab|----------------------------------------|
Db|----------------------------------------|
  |
Eb|----------------------------------------|
Bb|----------------------------------------| Im not sure about this part but
Gb|--6b7r---6----6b7r----------------------| it seems that guitar 2 uses an 
Db|----------------------------------------| e-bow while bending the string
Ab|----------------------------------------|
Db|----------------------------------------|
   

VERSE 2 **************************************
Eb|----------------------------------------|
Bb|--3p2---3p2---2---3p2---3p2---2---------|
Gb|------2-----2---------2-----2-----------|
Db|----------------------------------------|
Ab|----------------------------------------|
Db|----------------------------------------|
  |
Eb|----------------------------------------|
Bb|----------------------------------------|
Gb|----------------------------------------|
Db|--11-0-11-0-11-0-11-0-11-0-11-0-11-0----|
Ab|----------------------------------------|
Db|----------------------------------------|


Eb|--------5------------5------------------|
Bb|--7p5-------5--7p5-------5--------------|
Gb|------7---7--------7---7----------------|
Db|----------------------------------------|
Ab|----------------------------------------|
Db|----------------------------------------|
  |
Eb|----------------------------------------|
Bb|----------------------------------------|
Gb|----------------------------------------|
Db|--11-0-11-0-11-0-11-0-11-0-11-0-11-0----|
Ab|----------------------------------------|
Db|----------------------------------------|


CHORUS 2 ************************************
Eb|----------------------------------------|
Bb|----------------------------------------|
Gb|------4--------------4------------------|
Db|--0---4---5------0---4---5--------------|
Ab|--0---2---5------0---2---5--------------|
Db|--0-------5------0-------5--------------|
  |
Eb|-------------(5)------------------------|
Bb|-----5-3-2----5-3----5-3-2^---5-3-------|
Gb|----------------------------------------|
Db|--00-------44-----00-------44-----------|
Ab|----------------------------------------|
Db|----------------------------------------|
   The number inside (5) replaces the 5 below
   and its played after repeating 2 times this part


INTERLUDE **************************************
Eb|----------------------------------------|
Bb|----------------------------------------|
Gb|-9-11-----9-7---666^--------------------|
Db|-9-11-----9-7---000---------------------|
Ab|-7-9------7-5-0-------------------------|
Db|----------------------------------------|
  |
Eb|----------------------------------------|
Bb|----------------------------------------|
Gb|----------------------------------------|
Db|--2-4-----2-0---------------------------|
Ab|--2-4-----2-0---------------------------|
Db|--2-4-----2-0---------------------------|


Eb|----------------------------------------|
Bb|----10---7---10---7---10---10---10---10-|
Gb|--7----7---7----7---7----7----7----7----|
Db|----------------------------------------|
Ab|----------------------------------------|
Db|----------------------------------------|
  |
Eb|----------------------------------------|
Bb|----------------------------------------|
Gb|----------------------------------------|
Db|--2-4-----2-0---------------------------|
Ab|--2-4-----2-0---------------------------|
Db|--2-4-----2-0---------------------------|
Db|----------------------------------------|


Eb|----------------------------------------|
Bb|----10---7---10---7---10---10---10---10-|
Gb|--7----7---7----7---7----7----7----7----|
Db|----------------------------------------|
Ab|----------------------------------------|
Db|----------------------------------------|
  |
Eb|----------5--------------5--------------|
Bb|---------5---7/8--------5---7/8---------|
Gb|---7p6-----7------7p6-----7-------------|
Db|--0----0---------0----0-----------------|
Ab|----------------------------------------|
Db|----------------------------------------|
				             This part goes at the ending of the interlude
Eb|-15-0-14-0-10-0-12--15-0-14-0-10-0-12---||-15-0-14-0-15-0-17-0-|
Bb|----------------------------------------||---------------------|
Gb|----------------------------------------||---------------------|
Db|----------------------------------------||---------------------|
Ab|----------------------------------------||---------------------|
Db|----------------------------------------||---------------------|
  |
Eb|----------------------------------------|
Bb|----------------------------------------|
Gb|-7----6----6----6---7----6----6----11---|
Db|----------------------------------------|
Ab|-5----7----9----4---5----4----5----9----|
Db|----------------------------------------|
  |
Eb|----------------------------------------|
Bb|----------------------------------------| This is a 
Gb|-15---14---12---19-15---14---14---19----| third Guitar
Db|----------------------------------------|
Ab|-12---11---9----16-12---11---12---16----|
Db|----------------------------------------|


FINAL CHORUS ***********************************
Eb|-22--21--19--17--22--21--19--17---------| After playing this 
Bb|----------------------------------------| guitar 1 plays
Gb|----------------------------------------| the 4th part of
Db|----------------------------------------| the interlude
Ab|----------------------------------------| until the end of
Db|----------------------------------------| the song
  |
Eb|----------------------------------------|
Bb|----------------------------------------|
Gb|----------------------------------------|
Db|-5---7---9---4---5---7---9---4----------|
Ab|-5---7---9---4---5---7---9---4----------|
Db|-5---7---9---4---5---7---9---4----------|
  |
Eb|----------------------------------------|
Bb|----------------------------------------|
Gb|-7---6---4---11--7---6---4---11---------|
Db|----------------------------------------|
Ab|-5---4---2---9---5---4---2---9----------|
Db|----------------------------------------|

As you can see, this song is kind of complex so listen to the
song for timing, switch between left and right channel when
listening to the song so you can ear one guitar at the time.
Tap to rate this tab
# A B C D E F G H I J K L M N O P Q R S T U V W X Y Z