Song name
# A B C D E F G H I J K L M N O P Q R S T U V W X Y Z

Hopesfall - Breathe From Coma tab

Breathe from Coma

Comments: I've been playing this song for many years so I finally decided to tab it, 
it's pretty much spot on.
          I hope someone finds use of this since Hopesfall are gone now and very few know of 
their music.

Tabbed by: fondlemyballs

Legend: ~ (Let the note ring)
        b (Bend the note)
        . (Palm mute)
        \ (Slide)


Rhythm Guitar


Intro

D#|--------------------------------------------------|
A#|--------------------------------------------------|
F#|--------------------------------------------------|
C#|9-9---------------------------------9~~~\7-7-7-9-9|
G#|9-9---------------------------------9~~~\7-7-7-9-9|
C#|9-9---------------------------------9~~~\7-7-7-9-9|
                                            . . . . .

Verse

D#|--------------------------------------------------|
A#|--------------------------------------------------|
F#|----------------------12--------------------------|
C#|9-9-9-9-11-9-9-9-11-9---9-9-9-12------------------|
G#|9-9-9-9----9-9-9----9---9-9-9---------------------|
C#|9-9-9-9----9-9-9----9---9-9-9---------------------|
   . . . . .  . . . .  .   . . . .

D#|--------------------------------------------------|
A#|--------------------------------------------------|
F#|--------------------------------------------------|
C#|0-0-0-0-0-0-0-0-0-0-0-0-0-0-0-0-0-0-0-0-0-0-0-0-0-|
G#|0-0-0-0-0-0-0-0-0-0-0-0-0-0-0-0-0-0-0-0-0-0-0-0-0-|
C#|0-0-0-0-0-0-0-0-0-0-0-0-0-0-0-0-0-0-0-0-0-0-0-0-0-|
   . . . . . . . . . . . . . . . . . . . . . . . . .


Chorus

D#|----------------------------------------------------------|
A#|----------------------------------------------------------|
F#|----------------------------6b----------------------------|
C#|0-0-0-0-0-0-0-7-7-7-7-7-7-7----9-9-9-9-9-9-9\5-5-5-5-5-5-5|
G#|0-0-0-0-0-0-0-7-7-7-7-7-7-7----9-9-9-9-9-9-9\5-5-5-5-5-5-5|
C#|0-0-0-0-0-0-0-7-7-7-7-7-7-7----9-9-9-9-9-9-9\5-5-5-5-5-5-5|


Bridge part 1

D#|---------------------------------------------------------------|
A#|---------------------------------------------------------------|
F#|---------------------------------------------------------------|
C#|4-4-4-4-4-4-4-4-4-4-4-4-4-4-4-4-0-0-0-0-0-0-0-0-0-0-0-0-0-0-0-0|
G#|4-4-4-4-4-4-4-4-4-4-4-4-4-4-4-4-0-0-0-0-0-0-0-0-0-0-0-0-0-0-0-0|
C#|4-4-4-4-4-4-4-4-4-4-4-4-4-4-4-4-0-0-0-0-0-0-0-0-0-0-0-0-0-0-0-0|
   . . . . . . . . . . . . . . . . . . . . . . . . . . . . . . . .


Bridge part 2

D#|-------------------------------|
A#|-------------------------------|
F#|-------------------------------|
C#|4-4-4-4-4-4-4-4-0-0-0-0-0-0-0-0|
G#|4-4-4-4-4-4-4-4-0-0-0-0-0-0-0-0|
C#|4-4-4-4-4-4-4-4-0-0-0-0-0-0-0-0|


D#|--------------------------------------------------|
A#|--------------------------------------------------|
F#|--------------------------------------------------|
C#|9~~~-----------------------------9-9-9-9-7-7-7-9-9|
G#|9~~~-----------------------------9-9-9-9-7-7-7-9-9|
C#|9~~~-----------------------------9-9-9-9-7-7-7-9-9|
                                    . . . . . . . . .

(Play verse 1x)


Pre-chorus

D#|---------------------------------------|
A#|---------------------------------------|
F#|---------------------------------------|     (2x)
C#|2-2-2-2-2-2-2-2-2-2-5-5-5-5-5-5-5-5-5-5|
G#|2-2-2-2-2-2-2-2-2-2-5-5-5-5-5-5-5-5-5-5|
C#|2-2-2-2-2-2-2-2-2-2-5-5-5-5-5-5-5-5-5-5|
   . . . . . . . . . . . . . . . . . . . .


Climb

D#|----------------------------------|
A#|----------------------------------|
F#|--0---0~~~0---0~~~0---0~~~0---0~~~|
C#|----------------------------------|
G#|2---2~~~0---0~~~------------------|
C#|----------------2---2~~~5---5~~~~~|


Chorus (6x)


Coda (End)

D#|----|
A#|----|
F#|7~~~|
C#|0~~~|
G#|0~~~|
C#|0~~~|



Lead guitar

Intro

D#|14--------14--------14--------14---15|
A#|-----14--------15--------17----------|
F#|-------------------------------------|       (Repeat many times)
C#|-------------------------------------|
G#|-------------------------------------|
C#|-------------------------------------|


Verse

D#|17---15---14|
A#|------------|
F#|------------|
C#|------------|
G#|------------|
C#|------------|


D#|14--------14--------14--------14---15|
A#|-----14--------15--------17----------|
F#|-------------------------------------|
C#|-------------------------------------|
G#|-------------------------------------|
C#|-------------------------------------|


Pre-chorus

D#|14--------14--------14--------14---15|
A#|-----14--------15--------17----------|
F#|-------------------------------------|
C#|-------------------------------------|
G#|-------------------------------------|
C#|-------------------------------------|


Chorus

D#|---------------14|
A#|-----15----------|
F#|14--------14-----|
C#|-----------------|
G#|-----------------|
C#|-----------------|

(Repeat this many times after playing the first chorus riff a couple of times)

D#|-------|
A#|-------|
F#|14---15|
C#|-------|
G#|-------|
C#|-------|


Bridge part 1

D#|-------------------------------------------------------------|
A#|-------------------------------------------------------------|
F#|6---6---6---6---6---6---6---6---6---6---6---6---6---6---6---6|
C#|4---4---4---4---4---4---4---4---4---4---4---4---4---4---4---4|
G#|-------------------------------------------------------------|
C#|-------------------------------------------------------------|
   .   .   .   .   .   .   .   .   .   .   .   .   .   .   .   .

D#|-------------------------------------------------------------|
A#|-------------------------------------------------------------|
F#|7---7---7---7---7---7---7---7---9---9---9---7---7---7---6---6|
C#|0---0---0---0---0---0---0---0---0---0---0---0---0---0---0---0|
G#|-------------------------------------------------------------|
C#|-------------------------------------------------------------|

Bridge part 2

D#|--------------------------------------------------|
A#|--------------------------------------------------|
F#|6~~~~~~6-7-6~~~2~~~~~~4---------------------------|
C#|--------------------------------------------------|
G#|--------------------------------------------------|
C#|--------------------------------------------------|




Play this absolutely last in the bridge

D#|--------------------------------------------------------------|
A#|--------------------------------------------------------------|
F#|6~~~~~~6-7-6~~~2~~~~~~4~~~~~~6~~~~~~6-7-6-13-14-6-7-6-2~~~~~~4|
C#|--------------------------------------------------------------|
G#|--------------------------------------------------------------|
C#|--------------------------------------------------------------|


Verse riff


Climb (You can play the climb here from the Rhythm guitar if you want, remember that 
only one of the guitars play it though)


Last chorus (The last chorus is played differently)


D#|---------------14|
A#|-----15----------|
F#|14--------14-----|   (x3)
C#|-----------------|
G#|-----------------|
C#|-----------------|

D#|---------------14------------------14------------------14---------------|
A#|-----15------------------15------------------14------------------14-----|
F#|14--------14--------14--------14--------14--------14--------14--------14|
C#|------------------------------------------------------------------------|
G#|------------------------------------------------------------------------|
C#|------------------------------------------------------------------------|

D#|---------------14|
A#|-----15----------|
F#|16--------16-----|   (3x)
C#|-----------------|
G#|-----------------|
C#|-----------------|

D#|-------------17----------------15----------------14---------|
A#|----15----------------15----------------15------------15----|
F#|0--------0--------0--------0--------0--------0-------------0|
C#|------------------------------------------------------------|
G#|------------------------------------------------------------|
C#|------------------------------------------------------------|


Coda (End)

D#|-----|
A#|-----|
F#|6b~~~|
C#|0~~~~|
G#|0~~~~|
C#|0~~~~|
Tap to rate this tab
# A B C D E F G H I J K L M N O P Q R S T U V W X Y Z