Guitaretab - guitar tabs
Song name
# A B C D E F G H I J K L M N O P Q R S T U V W X Y Z

Hopesfall - The End Of An Era tab

Hopesfall - The End Of An Era
Tabbed By: brendan
EMail: landspeedcky2k2@aol.com


Intro
Guitar 1
Play this 8 times
E|-------------------------------------------------------------|
B|---4-----4--5p4--5p4--5p4-0-0-7-0-0-7-0-7-7p4-05p4-5p4-----|
G|6-6---6-66-6---6----6---------------------------------------|
D|-------------------------------------------------------------|
A|-------------------------------------------------------------|
E|-------------------------------------------------------------|


Guitar 2
Play this twice      (h)                    (h)
E|-------0-0-0-0-0-04-7-----------0-0-0-0-0-04-7--12--------|
B|-5~~~-------------------5~~~------------------------------|
G|----------------------------------------------------------|
D|----------------------------------------------------------|
A|----------------------------------------------------------|
E|----------------------------------------------------------|

Guitar 2
E|--------------------------------------------------------------|
B|-2-4-4b5------------------------------------------------------|
G|--------------------------------------------------------------|
D|--------11--11-11-11--11-11-11\9--7--6--6-6-6-6-6-6-6-6-7-6-7-|
A|--------11--11-11-11--11-11-11\9--7--6--6-6-6-6-6-6-6-6-7-6-7-|
E|---------9---9--9--9---9--9-9\7--5--4--4-4-4-4-4-4-4-4-5-4-5-|

Guitar 2 (continued)
E|--------------------------------------------------------|
B|--------------------------------------------------------|
G|--------------------------------------------------------|
D|--11--11-11-11--11-11-11\9-7--6--6-6-6-6-6-6-6-6--7-----|
A|--11--11-11-11--11-11-11\9-7--6--6-6-6-6-6-6-6-6--7-----|
E|---9---9--9--9---9--9-9\7-5--4--4-4-4-4-4-4-4-4--5-----|Guitar 1

E|----------------------------------------|
B|-4p0-4p0-5p0-5p0-7p0-7p0-9p0-9p0-10~----|
G|----------------------------------------|
D|----------------------------------------|
A|----------------------------------------|
E|----------------------------------------|

Guitar 1 (continued)
E|--------------------------------------------------------------------|
B|--7p07p05p0-5p0-4p0-4p0-4p0-4p0-7p0-7p0-5p0-5p0-4p0-4p0-4p0-4p0---|
G|--------------------------------------------------------------------|
D|--------------------------------------------------------------------|
A|--------------------------------------------------------------------|
E|--------------------------------------------------------------------|

Guitar 1 (Still continued)
E|--------------------------------------------------------|
B|---7p0-7p0-7p0-7p0-7p0-7p0-7p0-9p0----------------------|
G|--------------------------------------------------------|
D|--------------------------------------------------------|
A|--------------------------------------------------------|
E|--------------------------------------------------------|

Guitar 2
E|--------------------------------------------------------------------|
B|--------------------------------------------------------------------|
G|--------------------------------------------------------------------|
D|11-11-11-11-11-11-11-11-11-11-11-11-11-11-11-11-13-13-13-13-13-13-13|
A|11-11-11-11-11-11-11-11-11-11-11-11-11-1111-11-13-13-13-13-13-13-13|
E|9---9--9--9--9--9--9--9--9--9--9--9--9--9--9--9-11-11-11-11-11-11-11| Guitar 2 (continued)
E|-------------------------------------------------------------------|
B|-------------------------------------------------------------------|
G|-------------------------------------------------------------------|
D|-13-13-13-13-13-13-13-13-13-14-14-14-14-14-14-14-14-14-14-14-14-14-|
A|-13-13-13-13-13-13-13-13-13-14-14-14-14-14-14-14-14-14-14-14-14-14-|
E|-11-11-11-11-11-11-11-11-11-12-12-12-12-12-12-12-12-12-12-12-12-12-|


Guitar 2 (CONTINUED)
E|------------------------------------------------------------|
B|------------------------------------------------------------|
G|------------------------------------------------------------|
D|-14-14-14-14-16-16-16-16-16-16-16-16-16-16-16-16-16-16-16-16|
A|-14-14-14-14-16-16-16-16-16-16-16-16-16-16-16-16-16-16-16-16|
E|-12-12-12-12-14-14-14-14-14-14-14-14-14-14-14-14-14-14-14-14|
[ Tab from: http://www.guitaretab.com/h/hopesfall/39461.html ]
Guitar 1
E|---------------------------------------|
B|-4p0-4p0-4p0-4p0-4p0-4p0-4p0-5p0-x8----|
G|---------------------------------------|
D|---------------------------------------|
A|---------------------------------------|
E|---------------------------------------|

Guitar 1 (continued)
E|---------------------------------------|
B|-7p0-7p0-7p0-7p0-7p0-7p0-7p0-9p0-x8----|
G|---------------------------------------|
D|---------------------------------------|
A|---------------------------------------|
E|---------------------------------------|

Guitar 2
E|--------------------------------------------------|
B|--------------------------------------------------|
G|---6-6--6------4-4--4-----------------------------|
D|---6-6--6------4-4--4---7-x-x-x-x-7-x-x-x-x-7-----|
A|---4-4--4------2-2--2---7-x-x-x-x-7-x-x-x-x-7-----|
E|------------------------5-x-x-x-x-5-x-x-x-x-5-----|

All right, this is an awesome riff. It sounds awesome if u put in some 
pinch harmonics on the 14th fret G string.

Guitar 1
E|--------------------------------------------------------------------|
B|--------------------------------------------------------------------|
G|-14p13-13p12-----------------------14p13--13p12------------------11-|
D|----------------11-13h14p13-------------------------11-13h14p13-----|
A|----------------------------14----------------------------------14--|
E|------------------------------14------------------------------------|

Guitar 2
E|--------------|
B|--------------|
G|-6-6-----4-4--|
D|-6-6-----4-4--|
A|-4-4-----2-2--|
E|--------------|

Guitar 1
E|-----------------------------------------------------------------|
B|-----------------------------------------------------------------|
G|----14p13---------9----------------9---------------------9-------|
D|------------11-13---13-9--------13---13------------11-13---13-9--|
A|----------9-------------------9------------------9---------------|
E|------------------------11-12----------11h12p11------------------|

Guitar 1 Continued
E|-----------------------------|
B|-----------------------------|
G|------------9-11-------------|
D|---------13------------------|
A|-------9---------------------|
E|-11-12-----------11h12p11----|

No rhythm guitar for this part above
Guitar 1
E|-----------------------------------------------------------------|
B|-5---4-5-5--4-5-5---4-5-5---4-5-7---4-7-7---4-7-7---4-7-7---4----|
G|---4------4-------4-------4-------4-------4-------4-------4------|
D|-----------------------------------------------------------------|
A|-----------------------------------------------------------------|
E|-----------------------------------------------------------------|
E|-----------------------------------------------------------------|

Guitar 1

E|-----------------------------------------------------------|
B|-7-5--4-5-5---4-5-5---4-5-5---4-5-4--4--4--4--4--4--4--4---|
G|----4-------4-------4-------4------4--4--4--4--4--4--4--4--|
D|-----------------------------------------------------------|
A|-----------------------------------------------------------|
E|-----------------------------------------------------------|

Guitar 1
E|------------------------------------------------------------4----4-4|
B|5---4-5-5--4-5-5---4-5-5---4-5-7---4-7-7--4-7-7---4-7-7--4-7----4---|
G|--4------4-------4-------4-------4-------4------4------4-------4----|
D|--------------------------------------------------------------------|
A|--------------------------------------------------------------------|
E|--------------------------------------------------------------------|

Guitar 1
E|------4-4-----4-4-----4-5-----5-5----5-5----5-5-----5-----|
B|----4-------4-------4-------4------4------4-------4-------|
G|--4-------4-------4-------4------4------4-------4---------|
D|----------------------------------------------------------|
A|----------------------------------------------------------|
E|----------------------------------------------------------|

Guitar 2
E|----------------|
B|----------------|
G|--14b~~~~-------|
D|--14b~~~~-------|
A|----------------|
E|----------------|

Guitar 1

E|----------------------|
B|--5--7-7--9-9/10------|
G|----------------------|
D|----------------------|
A|----------------------|
E|----------------------|

Guitar 1
E|-----------------------------------------------------|
B|-10--10-10-9~~~--10--10-10-9~~~-12--12-12-12~~~------|
G|-----------------------------------------------------|
D|-----------------------------------------------------|
A|-----------------------------------------------------|
E|-----------------------------------------------------|
Related for The End Of An Era tab