Guitaretab - guitar tabs
Song name
# A B C D E F G H I J K L M N O P Q R S T U V W X Y Z

Hopesfall - Bending tab

-------------------------------------------------------------------------------
ďThe BendingĒ - Hopesfall
-------------------------------------------------------------------------------
Tabbed by: holy ghost
Hopesfall
ďThe BendingĒ
Cd: The Satelite Years

Tuning: D A D G b e

This isnít 100% accurate but itís almost spot on.

intro

e|-----------------------------------------|
B|-----------------------------------------|
G|-14-14-14--7-7-7-7--14-14-14--7-7-7-7----|
D|-----------------------------------------|
A|-12-12-12--5-5-5-5--12-12-12--5-5-5-5----|
D|-----------------------------------------|

verse

   p.m.]
e|-----------------------------------------|
B|-----------------------------------------|
G|-----------9-/-10--9-9-9-9---------------|
D|-------------------8-8-8-8---------------|
A|-0-0-7-/-8-7-/-8---8-8-8-8---------------|
D|-0-0-7-/-8---------8-8-8-8---------------|

Chorus chords

e|---------------------------------------------------------------------------|
B|---------------------------------------------------------------------------|
G|--10----------9-----------7-----------7-------7----------------------------|
D|--8-----------7-----------0-----------5-------7----------------------------|
A|--8-----------7-----------0-----------5-------7----------------------------|
D|--8-----------7-----------0-----------5-------7----------------------------|

Lead part

e|---------------------------------------------------------------------------|
B|------10b-----10p8-----6b----------------10b-----10~p8-----6b--------------|
G|--5h7-----5h7------5h7----5h7p5-3/2--5h7-----5h7------5h7----5h7p5-3/2-----|
D|---------------------------------------------------------------------------|
A|---------------------------------------------------------------------------|
D|---------------------------------------------------------------------------|

Pre breakdown

  p.m.***********************************************************************
e|---------------------------------------------------------------------------|
B|---------------------------------------------------------------------------|
G|---------------------------------------------------------------------------|
D|---------------------------------------------------------------------------|
A|-777777777777101010101010101010101010777777777777333333333333--------------|
D|-777777777777101010101010101010101010777777777777333333333333--------------|

Breakdown!

  p.m.***********************
e|--------------------------------------------------------|
B|--------------------------------------------------------|
G|----------------------------(7)----9-9-/-111111---------|
D|----------------------------(7)-------------------------|
A|-0-0-0--0-0-0----0-0-0--0-0--------7-7-/-9-9-9----------|
D|-0-0-0--0-0-0----0-0-0--0-0-----------------------------|
[ Tab from: http://www.guitaretab.com/h/hopesfall/86737.html ]
e|---------------------------------------------------------------------------|
B|---------------------------------------------------------------------------|
G|---------------------------------------------------------------------------|
D|---------------------------------------------------------------------------|
A|-0-0-0--0-0-0----0-0-0--0-0------------------------------------------------|
D|-0-0-0--0-0-0----0-0-0--0-0------------------------------------------------|

Play about 4 times...

e|--0-0-0--0--0--0-----|
B|--0-0-0--0--0--0-----|
G|--9-9-9--12-12-12----|
D|--7-7-7--10-10-10----|
A|--7-7-7--10-10-10----|
D|--7-7-7--10-10-10----|

 Lead riff...
 Just figure out the strumming but these are the notes

e|---------------------------------------------------------------------------|
B|--10-----12-----14---------------------------------------------------------|
G|--12-----14-----17---------------------------------------------------------|
D|---------------------------------------------------------------------------|
A|---------------------------------------------------------------------------|
D|---------------------------------------------------------------------------|

 Lead riff part. Itís very faint but no other tabs had this. And itís probably not    
correct but at least I gave it a shot.

e|----------------------------------10-10-10-|
B|-----8----10-8----10-8----10-8-------------|
G|--10---10------10------10------10----------|
D|-------------------------------------------|
A|-------------------------------------------|
D|-------------------------------------------|

e|-------------------------------------------|
B|-----8----10-8----10-8---------------------|
G|--10---10------10------10-/-12-12-12-------|
D|-------------------------------------10----|
A|-------------------------------------------|
D|-------------------------------------------|

  Backing guitar riff...

e|------------------------------------------------------------------------------|
B|------------------------------------------------------------------------------|
G|------------------------------10-10-10-10-10-10-10-10-10----------------------|
D|------------------------------------------------------------------------------|
A|-0-0-0-00-00-00-3-3-3-33-33--/-8--8--8ó-8ó-8--8--8--8--8-10-10-10-10-10-10-10-|
D|-0-0-0-00-00-00-3-3-3-33-33------------------------------10-10-10-10-10-10-10-|

e|---------------------------------------------------------------------------|
B|---------------------------------------------------------------------------|
G|---9-10-12--14-12---9/10-10-10-10-10---------------------------------------|
D|-0-----------------------------------8-0-0-0-0-0-0-0-----------------------|
A|-0-7-8--10--12-10---7/8--8--8--8--8--8-0-0-0-0-0-0-0-----------------------|
E|-0-----------------------------------8-0-0-0-0-0-0-0-----------------------|

  Strum these chords for the outro

e|---------------------------------------------------------------------------|
B|---------------------------------------------------------------------------|
G|---------------------------------------------------------------------------|
D|-10----5----8----0---------------------------------------------------------|
A|-10----5----8----0---------------------------------------------------------|
E|-10----5----8----0---------------------------------------------------------|

 Donít remember the lead part for the outro. Iíll figure it out later.

 Like I said this isnít perfect but itís about 95% correct.


| ===============================================================================
Related for Bending tab