Guitaretab - guitar tabs
Song name
# A B C D E F G H I J K L M N O P Q R S T U V W X Y Z

Hopesfall - Cubic Zirconias Are Forever tab

i dont see any new tabs for hopesfall lately and thought to post this one up

[ Tab from: http://www.guitaretab.com/h/hopesfall/93184.html ]
Main Riff
eb|--------------------------------------------|
Bb|-----6---4----7-----------------------------|
Gb|----------------444-333---------------------|
Db|---55--5---55---444-333---------------------|
Ab|--------------------------------------------|
Db|--------------------------------------------|
2nd guitar w/delay
eb|--------------------------------------------|
Bb|---6-(6)(6)(6)--4-(4)(4)(4)-----------------|
Gb|--------------------------------------------|
Db|--------------------------------------------|
Ab|--------------------------------------------|
Db|--------------------------------------------|

2nd riff is main riff and this in background
eb|--------------------------------------------|
Bb|---3-4-3-4-3-4-3--6-------------------------|
Gb|--0-0-0-0-0-0-0-0---------------------------|
Db|--------------------------------------------|
Ab|--------------------------------------------|
Db|--------------------------------------------|

thats all i can figure out for now hope it helps someone tab the whole song

Related for Cubic Zirconias Are Forever tab
Advertisement will be closed in 10 seconds