Guitaretab - guitar tabs
Song name
# A B C D E F G H I J K L M N O P Q R S T U V W X Y Z

Horde - Thine Hour Hast Come tab

-------------------------------------------------------------------------------
			  THINE HOUR HAST COME - Horde
-------------------------------------------------------------------------------
Tabbed by: ()
Email: ajmclaughlin5@aim.com 

Tuning: Standard 

RIFF A
e|-----------------------------------------------|
B|-----------------------------------------------|
G|-----------------------------------------------|
D|-----------------------------------------------|
A|-2-2-4-3-3--2-2-4-3-6--2-2-4-3-3--6-5-5--5-5-4-|
E|-0-0-2-1-1--0-0-2-1-4--0-0-2-1-1--4-3-3--3-3-2-|

LEAD INTO RIFF B
e|-------------------------------|
B|-------------------------------|
G|-^-------------^---------------|
D|-2-------------2---------------|
A|-2-------------2------------7/-|
E|-0-------------0------------7/-|
[ Tab from: http://www.guitaretab.com/h/horde/108291.html ]
RIFF B
e|-------------------------------------------------|
B|-------------------------------------------------|
G|-------------------------------------------------|
D|-^-----------5-----6---~-^-----------6-----7---~-|
A|-2-2-5-4-4-3---4-5---5-4-2-2-5-4-4-4---5-6---6-5-|
E|-0-0-3-2-2---------------0-0-3-2-2---------------|

RIFF C
e|-----------------------------------------------------------|
B|-----------------------------------------------------------|
G|-----------------------------------------------------------|
D|-----------------------^-^---------------------------------|
A|-2-2-2-2-2-2-2-2-2-2-2-3-5-4-4-4-4-4-4-4-4-3-3-3-3-3-3-3-3-|
E|-0-0-0-0-0-0-0-0-0-0-0-1-3-2-2-2-2-2-2-2-2-1-1-1-1-1-1-1-1-|

RIFF D
e|------------------------|
B|------------------------|
G|------------------------|
D|------------------------|
A|----~-----~-----~--~--~-|
E|-0--1--0--2--0--1--2--1-|

RIFF E
e|------------------------|
B|------------------------|
G|------------------------|
D|-^--^--^--^--^--^--^--^-|
A|-2--3--2--4--2--3--4--3-|
E|-0--1--0--2--0--1--2--1-|

ORDER
RIFF A  X4
LEAD INTO RIFF B
RIFF B  X4
RIFF C  X4
RIFF B  X4
RIFF C  X4
RIFF D  X2
RIFF E  X4
RIFF A  X4
LEAD INTO RIFF B
RIFF B  X3

| /  slide up
| \  slide down
| h  hammer-on
| p  pull-off
| ~  vibrato
| +  harmonic
| x  Mute note
===============================================================================
Related for Thine Hour Hast Come tab