Song name
# A B C D E F G H I J K L M N O P Q R S T U V W X Y Z

Horde - Invert The Inverted Cross tab

Im Sure This is Correct But Im also sure that i am missing the lead guitar
parts because i find it hard to transcribe them sorry!
It's up to you to deal with timing and exact arrangement.

Any Comments or Corrections Please Mail MigsGuitarTabs@yahoo.com

Horde - Invert The Inverted Cross
Tuning - Normal Tuning
*Note:Tremolo Picking is used almost for the whole song
(the repetitive 0s 7s 6s 8s etc are really like that. play them really fast.) 

Intro

|-----------|
|-----------|
|-----------|
|-----------|
|--5-8-5-7--|
|--------0--|

Verse
|-----------------------------------------------------------|
|-----------------------------------------------------------|
|-----------------------------------------------------------|
|-----------------------------------------------------------|
|--------------------------------------------------5-8-5-7--|
|--000000000000000077777777666666668888888877777777------0--|

2nd Part (Overdub or Lead)
|----------|
|----------|
|----------|
|----------|
|----------|
|--12--10--|

2nd Part
|--------------------------------------------------------------------|
|--------------------------------------------------------------------|
|--------------------------------------------------------------------|
|--------------------------------------------------------------------|
|--------------------------------------------------------------------|
|--0000000000000000000000000000000000000000000000003333333344444444--|

|--------------------------------------------------------------------|
|--------------------------------------------------------------------|
|--------------------------------------------------------------------|
|--------------------------------------------------------------------|
|--------------------------------------------------------------------|
|--000000000000000000000000000000000000000000000000000000004~~~~3~~~~|

3rd Part
|--------------------------------------------------------------------|
|--------------------------------------------------------------------|
|--------------------------------------------------------------------|
|--222222232222222355555555777777778888888877777777------------------|
|--------------------------------------------------------------------|
|--------------------------------------------------------------------|

|--------------------------------------------------------------------|
|--------------------------------------------------------------------|
|--------------------------------------------------------------------|
|--22222223222222235555555577777777888888881010101010101010----------|
|--------------------------------------------------------------------|
|--------------------------------------------------------------------|

End Of Riffs at Parts of The Song
|--------------------------------------------------------------------|
|--------------------------------------------------------------------|
|--------------------------------------------------------------------|
|--------------------------------------------------------------------|
|--5-8-5-7---5-8-5-7---5-8-5-7---5---4---8---7-----------------------|
|--------0---------0---------0---------------0-----------------------|
Tap to rate this tab
# A B C D E F G H I J K L M N O P Q R S T U V W X Y Z