Song name
# A B C D E F G H I J K L M N O P Q R S T U V W X Y Z

Horkyze Slize - Liza A Wendy tab

 |       |       |       |        
|--------------------------------|
|--------------------------------|
|4-4-4-4-4-4---------------------|
|4-4-4-4-4-4---5-5-5-5-5-5-------|
|2-2-2-2-2-2---5-5-5-5-5-5-------|
|--------------3-3-3-3-3-3-------|
 
 |       |       |       |        
|--------------------------------|
|--------------------------------|
|7-7-7-7-7-7---------------------|
|7-7-7-7-7-7---7-7-7-7-7-7-------|
|5-5-5-5-5-5---7-7-7-7-7-7-------|
|--------------5-5-5-5-5-5-------|
 
 |       |       |       |        
|--------------------------------|
|--------------------------------|
|----4---------------7-----------|
|--4-------5-------7-------7-----|
|2-------5---5---5-------7---7---|
|------3---------------5---------|

Band site: http://www.horkyzeslize.sk/
Tap to rate this tab
# A B C D E F G H I J K L M N O P Q R S T U V W X Y Z