Song name
# A B C D E F G H I J K L M N O P Q R S T U V W X Y Z

Horna - Sanojesi Aarelle tab

Song - Sanojesi Äärelle

Band - Horna

Album - ...Sanojesi Äärelle


 D-Tuning

 Riff 1
 
|----------------------------------|
|----------------------------------|
|----------------------------------|
|--6-6-6-6-6-6-6-6-6-6-6-6-6-6-6-6-|
|--4-4-4-4-4-4-4-4-4-4-4-4-4-4-4-4-|
|----------------------------------|
 
|------------------------------------------|
|------------------------------------------|
|------------------------------------------|
|--6-6-6-6-7-7-7-7-10-10-10-10-10-10-10-10-|
|--4-4-4-4-0-0-0-0--0--0--0--0--0--0--0--0-|
|------------------------------------------|
  
|----------------------------------|
|----------------------------------|
|----------------------------------|
|--6-6-6-6-6-6-6-6-6-6-6-6-6-6-6-6-|
|--4-4-4-4-4-4-4-4-4-4-4-4-4-4-4-4-|
|----------------------------------|
      
|----------------------------------|
|----------------------------------|
|----------------------------------|
|--6-6-6-6-7-7-7-7-7-7-6-6-4-4-6-6-|
|--4-4-4-4-0-0-0-0-0-0-0-0-0-0-0-0-|
|----------------------------------|


Riff 2

|--------------------------|
|--------------------------|
|--------------------------|
|--6--6--6--6--------------|
|--4--4--4--4--6--6--6--6--|
|--------------4--4--4--4--|
 
|--------------------------|
|--------------------------|
|--------------------------|
|--------------------------|
|--5--5--5--5--5--5--5--5--|
|--3--3--3--3--3--3--3--3--|
 
|--------------------------|
|--------------------------|
|--------------------------|
|--------------8--8--8--9--|
|--5--5--5--5--6--6--6--7--|
|--3--3--3--3--------------|
              
|--------------------------|
|--------------------------|
|--------------------------|
|--7--7--7--7--7--7--7--7--|
|--5--5--5--5--5--5--5--5--|
|--------------------------|


Riff 3

|----------------------------------|
|----------------------------------|
|----------------------------------|
|--6-6-6-6-6-6-6-6-6-6-6-6-6-6-6-6-|
|--4-4-4-4-4-4-4-4-4-4-4-4-4-4-4-4-|
|----------------------------------|

|----------------------------------|
|----------------------------------|
|----------------------------------|
|--7-7-7-7-7-7-7-7-7-7-7-7-7-7-7-7-|
|--4-4-4-4-4-4-4-4-4-4-4-4-4-4-4-4-|
|----------------------------------|
 
|----------------------------------|
|----------------------------------|
|----------------------------------|
|--7-7-7-7-7-7-7-7-7-7-7-7-6-6-6-6-|
|--0-0-0-0-0-0-0-0-0-0-0-0-0-0-0-0-|
|----------------------------------|
 
|----------------------------------|
|----------------------------------|
|----------------------------------|
|--4-4-4-4-4-4-4-4-1-1-1-1-1-1-1-1-|
|--0-0-0-0-0-0-0-0-0-0-0-0-0-0-0-0-|
|----------------------------------|
 
|----------------------------------|
|----------------------------------|
|----------------------------------|
|--6-6-6-6-6-6-6-6-6-6-6-6-4-4-4-4-|
|--2-2-2-2-2-2-2-2-2-2-2-2-2-2-2-2-|
|----------------------------------|

|----------------------------------|
|----------------------------------|
|----------------------------------|
|--2-2-2-2-2-2-2-2-1-1-1-1-1-1-1-1-|
|--2-2-2-2-2-2-2-2-2-2-2-2-2-2-2-2-|
|----------------------------------|

|----------------------------------|
|----------------------------------|
|----------------------------------|
|--2-2-2-2-2-2-2-2-4-4-4-4-4-4-4-4-|
|--0-0-0-0-0-0-0-0-0-0-0-0-0-0-0-0-|
|----------------------------------|
          
|----------------------------------|
|----------------------------------|
|----------------------------------|
|--4-4-4-4-4-4-4-4-2-2-2-2-2-2-2-2-|
|--2-2-2-2-2-2-2-2-2-2-2-2-2-2-2-2-|
|----------------------------------|


Riff 4

|--------------------------|
|--------------------------|
|--------------------------|
|--6--6--6--6--7--7--7--7--|
|--4--4--4--4--4--4--4--4--|
|--------------------------|

|--------------------------|
|--------------------------|
|--------------------------|
|--7--7--6--6--4--4--9--9--|
|--0--0--0--0--0--0--0--0--|
|--------------------------|
 
|--------------------------|
|--------------------------|
|--------------------------|
|--6--6--6--6--7--7--7--7--|
|--4--4--4--4--4--4--4--4--|
|--------------------------|

|--------------------------|
|--------------------------|
|--------------------------|
|--7--7--6--6--4--4--9--9--|
|--0--0--0--0--0--0--0--0--|
|--------------------------|

|--------------------------|
|--------------------------|
|--------------------------|
|--6--6--6--6--7--7--7--7--|
|--4--4--4--4--4--4--4--4--|
|--------------------------|
 
|--------------------------|
|--------------------------|
|--------------------------|
|--7--7--6--6--4--4--9--9--|
|--0--0--0--0--0--0--0--0--|
|--------------------------|

|-----------------------------|
|-----------------------------|
|-----------------------------|
|--9--9--9--11--11--11--9--9--|
|--7--7--7---7---7---7--7--7--|
|-----------------------------|
           
|----------------------------------|
|----------------------------------|
|----------------------------------|
|--13--13--14--14--14--14--13--13--|
|--11--11--11--11--11--11--11--11--|
|----------------------------------|

Song Structure

Riff 1 x 4
Riff 2 x 4
Riff 1 x 4
Riff 2 x 4
Riff 3 x 2
Riff 4 x 2
Riff 3 x 2
Riff 4 x 2
Riff 1 x 8

End with a B power chord
Tap to rate this tab
 
# A B C D E F G H I J K L M N O P Q R S T U V W X Y Z