Song name
# A B C D E F G H I J K L M N O P Q R S T U V W X Y Z

Horror Piknik - Masovna Sarana tab

Horror Piknik - Masovna sarana
Guitar Tab
Standard Tuning (EADGBE)
Without Solo
Legend:
PM - Palm Mute
s - slide
/ or \ - power chord slide
h - hammer on
p - pull off
t - tapping
v - vibrato

Intro Riff / Main Riff
e|------------------|----------------------------------|
H|------------------|----------------------------------|
G|------------------|----------------------------------|
D|------------------|----------------------------------|
A|-7----------------|----------------------------------|
E|-5-555555-5-5-555-|6h7p6h7p6h7p6h7-3h4p3h4p3h4p3h4---|
  PM---------------------------------------------------|

Verse
e|-----------------------------|--------------------------------|
H|-----------------------------|--------------------------------|
G|-----------------------------|--------------------------------|
D|------------------------4--7-|----------------------7--4------|
A|-3--------------3-------2--5-|3-------------3-------5--2------|
E|-1-1111112-1-2--1-111111-----|1-1111112-1-2-1-111111----------|
    PM----|        PM----|       PM----|      PM----------------|

Chorus
e|-----------------------------------------------------------------------|
H|-----------------------------------------------------------------------|
G|-----------------------------------------------------------------------|
D|-4-----4------------------3-----3--------------------------------------|
A|-2-22222-2222-5-----5-----1-11111-1111-4h5p4h5p4h5p4h5-3h4p3h4p3h4p3h4-|
E|--------------3-33333-3333---------------------------------------------|

Break
e|-------|
H|-------|
G|-------|
D|-2-----|
A|-2-----|
E|-0-----|

Bridge
e|-------------------------------|----------------------------|
H|-------------------------------|----------------------------|
G|-------------------------------|----------------------------|
D|-2-2-2---2-2-2---2---2---2-----|-2-2-2---2--3h2---2---------|
A|-2-2-2---2-2-2---2---2---2-3-5-|-2-2-2---2------3---3-2-----|
E|-0-0-0---0-0-0---0---0---0-1-3-|-0-0-0---0------------------|
  PM-------------------|          PM--------------------------|

Solo Riff
e|--------------------------------------|
H|--------------------------------------|
G|--------------------------------------|
D|--------------------------------------|
A|---------------------777766665555-----|
E|-00000000111111115555-----------------|
  PM------------------------------------|

Ending
e|----
H|----
G|----
D|-2--  Let
A|-2--     it
E|-0--       ring

Lyrics
Kosturi izlaze iz grobova
jer zele da uniste ljude
popit ce nam oci i mozgove
masakr ce da bude

Naostrili su svoje zube
S njima ce da grizu ljude
Krenuli su,zveckaju kosti
Nece biti milosti

Sveza raka je iskopana
u njoj nasa tela bit ce pokopana
crvima cemo biti hrana
masovna sarana

Masovna sarana

Solo

Iz dubokih katakombi
urlaju zubati zombi
kad budu pokazali lice
pocrkat ce sve ptice

Izmedu zivota i smrti
Vise nista nece postojati
osim beskrajnog mora
mrtvackih glava i kostura

Sveza raka je ikopana
U njoj nasa tela bit ce pokopana
crvima cemo biti hrana
masovna sarana
Tap to rate this tab
# A B C D E F G H I J K L M N O P Q R S T U V W X Y Z