Song name
# A B C D E F G H I J K L M N O P Q R S T U V W X Y Z

Horrorpops - Private Hall Of Shame tab

Help us improve GuitareTab! Take a short survey!
tabbed by yuval peri-ohad
email: eilon_p@hotmail.com
preview:
-------------------|
-------------------|
----x-3-3-x--------|
5-5-x 3-3-x-3-3----|
5-5-x-1-1-x-3-3----|
3-3-x-----x-1-1----|   x2

------------------------|
------------------------|
----x-3-3-x-----x-5-5---|
5-5-x 3-3-x-3-3-x-5-5---|
5-5-x-1-1-x-3-3-x-3-3---|
3-3-x-----x-1-1-x-------|  x2

verse: (the verse is a bass line)

----------------|
----------------|
----------------|
----------------|
----1-1-----3-3-|
3-3-----1-1-----|


chorus: ( na na na na...)

----------------------------------------------------------------|
----------------------------------------------------------------|
--------------------------------3-3-3-3-3-3-3-3-7-7-7-7-7-7-7-7-|
5-5-5-5-5-5-5-5-3-3-3-3-3-3-3-3-3-3-3-3-3-3-3-3-7-7-7-7-7-7-7-7-|
5-5-5-5-5-5-5-5-3-3-3-3-3-3-3-3-1-1-1-1-1-1-1-1-5-5-5-5-5-5-5-5-|
3-3-3-3-3-3-3-3-1-1-1-1-1-1-1-1---------------------------------|
Related for Private Hall Of Shame tab