Song name
# A B C D E F G H I J K L M N O P Q R S T U V W X Y Z

Horrorpops - Misstake tab

I've noticed that the solos that have been tabbed are wrong so heres they are correctly tabbed out.
^bend
/slide

e|-----------------------------------------|
B|-----------------------------------------|
G|-----------------------------------------|    X 2
D|-----------------------------------------|
A|--3-6-5-6---6-5-6-3-6-5-6-5-6-5-6--------|
E|----------3------------------------------|

e|---------------------------------------------------|
B|---------------------------------------------------|
G|---------------------------------------------------|
D|----------3-3----------------------3-3-------------|
A|--3-6-5-6-----6-6-5-5-6-6----6-5-6-----6-6-5-5-6-6-|
E|--------------------------3------------------------|

e|--------------------------------------------|
B|--------------------------------------------|
G|--------------------------------------------|
D|--1-5-3-5-6-6-5-5-3-3-5-5---5-7-8-7-5-3-1-0-|
A|--------------------------------------------|
E|--------------------------------------------|

e|-------------------------------------------------------|
B|-------------------------------------------------------|
G|----8-10p8--10^-10-10-8-------8-10p8-10^-10-8----------|
D|-10----------------------10-8-----------------10-------|
A|-10-------------------------8--------------------------|
E|-------------------------------------------------------|

e|-------------------11-10-8-6-----------------------------------|
B|-------------------11-10-8-6-----------------------------------|
G|-8-8h10-10-8h10-10------------------7-0-8-0-7-5-0-4/-----------|
D|-8-8h10-10-8h10-10-----------555555----------------------------|
A|-----------------------------555555----------------------------|
E|---------------------------------------------------------------|


there, enjoy it.(pretty much) correctly written for once!
Tap to rate this tab
 
# A B C D E F G H I J K L M N O P Q R S T U V W X Y Z