Song name
# A B C D E F G H I J K L M N O P Q R S T U V W X Y Z

Horrorpops - Dotted With Hearts tab

-------------------------------------------------------------------------------
			     dotted with hearts - Horrorpops
-------------------------------------------------------------------------------
Tabbed by: kris oliver
Email: crklekay_42000@yahoo.com

Tuning: standard

e|--------------------------------------------------12-12-11-11-10-10-11-11--|
B|--------------------------------------------------12-12-11-11-10-10-11-11--|
G|----------------------------------9-9-8-8-7-7-8-8--------------------------|
D|------------------5-5-4-4-3-3-4-4------------------------------------------|
A|--2-2-1-1-0-0-1-1----------------------------------------------------------|
E|---------------------------------------------------------------------------|
Tap to rate this tab
# A B C D E F G H I J K L M N O P Q R S T U V W X Y Z