Song name
# A B C D E F G H I J K L M N O P Q R S T U V W X Y Z

Horse Feathers - Hardwood Pews tab

HARDWOOD PEWS


The song is pretty easy, but this is just the barebones because I'm tired of not being
able to find any of their tabs anywhere. Any help in cleaning this up would be much
appreciated. Please email any comments or corrections to me at jcasti010@gmail.com. Thanks!



CAPO 2nd FRET

INTRO
e|-----------------------------------------------|
B|----------0h1-----0h1---------0h1--------------|
G|------0h2-----0h2-----0h2-0h2-----0h2----------|
D|--0h2---------------------------------0h2------|
A|------------------------------------------0h2--|
E|-----------------------------------------------|



"A" is played during the verses
"B" is played after certain verses, albeit quietly
"C" is also played after certain verses, Ex: "Your life as you know//is hopeless, it'll 
happen too slow"

Parts A and B are repeated when they show up, you'll know what I'm talking about if you
play along with the song.


   A              B              C

|-----0----------0-1-0-----------0---0---0---0---1-0-1-0-1-0----|
|------------------------------3---3---3---3--------------------|
|-0-------------------------------------------------------------|
|---2-----------------------------------------------------------|
|---------------------------------------------------------------|
|---------------------------------------------------------------|



Bridge/instrumental part

|--8-3-0---3---0------1-0-1-0-1-0------|
|------------3---0---------------------|
|--------------------------------------|
|--------------------------------------|
|--------------------------------------|
|--------------------------------------|
Tap to rate this tab
 
# A B C D E F G H I J K L M N O P Q R S T U V W X Y Z