Song name
# A B C D E F G H I J K L M N O P Q R S T U V W X Y Z

Horse The Band - Bunnies tab

Bunnies by Horse The Band

Tunning: Standard
Tabbed by: hero904 (Adan and Justin)

This is the little synthesizer thing at the begining of the song.
Intro: (0:00-0:16)
--------------------------|
--------------------------|
--------------------------|
--4-5-4-0----4-5-4-0-2----|
--------------------------|    4x
--------------------------|

P.M.
(0:00-0:17)
|--------------------------------------------------------------|
|--------------------------------------------------------------|
|--------------------------------------------------------------|
|---9~--7~------------5~---7~----9~----7~--5~--7~--------------|
|---9~--7~--77-7-77---5~---7~----9~----7~--5~--7~--------------|
|---7~--5~--55-5-55---3~---5~----7~----5~--3~--5~--------------|

(0:18-0:47)
|----------------------------------|
|----------------------------------|
|----------------------------------|
|----------------------------------|
|----------------------------------|
|---7-9-10-9-777101010-------------|  (10's not 1's)


Thats all i got for now. enjoy.
Tap to rate this tab
# A B C D E F G H I J K L M N O P Q R S T U V W X Y Z