Song name
# A B C D E F G H I J K L M N O P Q R S T U V W X Y Z

Horse The Band - Murder tab

This is a great song that deserved a good tab. Now learn it Motherf*****s

E-------------------------------------------------------------------------|
B-------------------------------------------------------------------------|
G-------------------------------------------------------------------------|
D-000--------------------------------0-0-0000-00-0000-00-0000-00-0-5p3p0--|
A-000--------------------------------0-0-0000-00-0000-00-0000-00-0--------|
D-000--------------------------------0-0-0000-00-0000-00-0000-00-0--------|



E-------------------------------------------------------------------------|
B-------------------------------------------------------------------------|
G-------------------------------------------------------------------------|
D------------------------------7b8r7-0-0-000--0-000--0-000-0--0-0-3h5p0---|
A-88888888888888888888888877553------0-0-000--0-000--0-000-0--0-0---------|
D-88888888888888888888888877553------0-0-000--0-000--0-000-0--0-0---------|
pm^^^^^^^^^^^^^^^^^^^^^^^^^^^^^


E-------------------------------------------------------------------------|
B-------------------------------------------------------------------------|
G-------------------------------------------------------------------------|
D-------------------------------------------------------------------------|
A-8888888888888888888888888877553320--------------------------------------|
D-8888888888888888888888888877553320--------------------------------------|
pm^^^^^^^^^^^^^^^^^^^^^^^^^^^^^^^^^^


E-------------------------------------------------------------------------|
B-------------------------------------------------------------------------|
G-----------------------------------------------10-----10-----------------|
D-/3--3--3--3-5--5-5--5-5-5--/7--7--7--7-8--8-8----7\8--------------------|
A-------------------------------------------------------------------------|
D-------------------------------------------------------------------------|



E-------------------------------------------------------------------------|
B-------------------------------------------------------------------------|
G-------------------------------------------------------------------------|
D-------------------------------------------------------------------------|
A-3--3--3--3/5--5-5--5-5-5--7--7--7--7/8--8-8--8-7-5----------------------|
D-------------------------------------------------------------------------|



E-------------------------------------------------------------------------|
B-------------------------------------------------------------------------|
G-/7--7--7--7-9--9-9--9-9-9--/10--10--10--10-12--12-12--12-12-12----------|
D-------------------------------------------------------------------------|
A-------------------------------------------------------------------------|
D-------------------------------------------------------------------------|



E-------------------------------------------------------------------------|
B-------------------------------------------------------------------------|
G-12--12--12--12/14--14-14--14-14-14--15--15--15--15/17--17-17--17-17-17--|
D-------------------------------------------------------------------------|
A-------------------------------------------------------------------------|
D-------------------------------------------------------------------------|



E-------------------------------------------------------------------------|
G-------------------------------------------------------------------------|
G---------------------------------7h5---7h5---7h5--7h5---7h5-7h5----------|
D-7-5-0-7-5-0-7-5-0-7-5-0-7-5-7-5-----7-----7-----7----7------------------|
A-------------------------------------------------------------------------|
D-------------------------------------------------------------------------|
pm^^^^^^^^^^^^^^^^^^^^^^^^^^^^^^^


E-------------------------------------------------------------------------|
B-------------------------------------------------------------------------|
G-------------------------------------------------------------------------|
D-0-0-0---0-0-0---0---0-0-0--0-0-0-----0-0-0---0-0-0---0---0-0-0--0-0-1/--|
A-0-0-0---0-0-0---0---0-0-0--0-0-0-----0-0-0---0-0-0---0---0-0-0--0-0-1/--|
D-0-0-0---0-0-0---0---0-0-0--0-0-0-----0-0-0---0-0-0---0---0-0-0--0-0-1/--|



E-------------------------------------------------------------------------|
B-------------------------------------------------------------------------|
G-------------------------------------------------------------------------|
D-------------------------------------------------------------------------|
A-------------------------------------------------------------------------|
D------------------------------------0-0-3p2p0-3p0h2-0-0-3p2p0-3p2p0------|



E-------------------------------------------------------------------------|
B-------------------------------------------------------------------------|
G-------------------------------------------------------------------------|
D-8-8-8-8-8-8-8-8-8-5-5-5-5-5-5-5-5---------------------------------------|
A-8-8-8-8-8-8-8-8-8-5-5-5-5-5-5-5-5---------------------------------------|
D-8-8-8-8-8-8-8-8-8-5-5-5-5-5-5-5-5--7p5p0-7p5p0-7p5p0-7p5p0-7p5p0--------|
pm^^^^^^^^^^^^^^^^^^^^^^^^^^^^^^^^^


E-------------------------------------------------------------------------|
B-------------------------------------------------------------------------|
G-------------------------------------------------------------------------|
D-8-8-8-8-8-8-8-8-8-5-5-5-5-5-5-5-5---------------------------------------|
A-8-8-8-8-8-8-8-8-8-5-5-5-5-5-5-5-5---------------------------------------|
D-8-8-8-8-8-8-8-8-8-5-5-5-5-5-5-5-5--0-0-3p2p0-3p0h2-0-0-3p2p0-3p2p0------|
pm^^^^^^^^^^^^^^^^^^^^^^^^^^^^^^^^^


E-------------------------------------------------------------------------|
B-------------------------------------------------------------------------|
G-------------------------------------------------------------------------|
D-8-8-8-8-8-8-8-8-8-5-5-5-5-5-5-5-5---------------------------------------|
A-8-8-8-8-8-8-8-8-8-5-5-5-5-5-5-5-5---------------------------------------|
D-8-8-8-8-8-8-8-8-8-5-5-5-5-5-5-5-5--7p5p0-7p5p0-7p5p0-7p5p0-7p5p0--------|
pm^^^^^^^^^^^^^^^^^^^^^^^^^^^^^^^^^

MURDER!
E-------------------------------------------------------------------3--5--|
B-------------------------------------------------------------------6b-8b-|
G-------------------------------------------------------------------------|
D-0-0------0---0-0-0-0-0-0-0-0-0----0-0------0---0-0-0-0-0-0-0-0-0--------|
A-0-0(ring)0---0-0-0-0-0-0-0-0-0----0-0(ring)0---0-0-0-0-0-0-0-0-0--------|
D-0-0------0---0-0-0-0-0-0-0-0-0----0-0------0---0-0-0-0-0-0-0-0-0--------|
pm^^^^^^^^^^^^^^^^^^^^^^^^^^^^^^^^^^^^^^^^^^^^^^^^^^^^^^^^^^^^^^^^


E-------------------------------------------------------------------------|
B-------------------------------------------------------------------------|
G-------------------------------------------------------------------------|
D-0-0------0---0-0-0-0-0-0-0-0-0----0-0------0---0-0-0-0-0-0-0-0-0--------|
A-0-0(ring)0---0-0-0-0-0-0-0-0-0----0-0(ring)0---0-0-0-0-0-0-0-0-0--------|
D-0-0------0---0-0-0-0-0-0-0-0-0----0-0------0---0-0-0-0-0-0-0-0-0--------|
pm^^^^^^^^^^^^^^^^^^^^^^^^^^^^^^^^^^^^^^^^^^^^^^^^^^^^^^^^^^^^^^^^

Empty plains echo with these empty streams...
E-------------------------------------------------------------------------|
B-------------------------------------------------------------------------|
G-------------------------------------------------------------------------|
D--pick-scratch-/3-2------/5--3-0p3-2--0----------------------------------|
A--------------------0h1p0-------------0----------------------------------|
D--------------------------------------0----------------------------------|



E-------------------------------------------------------------------------|
B-------------------------------------------------------------------------|
G-------------------------------------------------------------------------|
D-/3-2------/5--3-0p3-2/3--2------/5--3-0p3-2--0--------------------------|
A------0h1p0-----------------0h1p0-------------0--------------------------|
D----------------------------------------------0--------------------------|


Then use the skills of the wolf....
E-------------------------------------------------------------------------|
B-------------------------------------------------------------------------|
G-----7--7----7--7----7--7----7--7----7--7----7--7----7--7----7--7--------|
D-----7--7----7--7----7--7----7--7----7--7----7--7----7--7----7--7--------|
A-0-0-----0-0-----0-0-----0-0-----0-0-----0-0-----0-0-----0-0-------------|
D-0-0-----0-0-----0-0-----0-0-----0-0-----0-0-----0-0-----0-0-------------|
pm^^^     ^^^     ^^^     ^^^     ^^^     ^^^     ^^^     ^^^


E-------------------------------------------------------------------------|
B-----------------------------6-6-----------------------------------------|
G-----5--5----5--5----5--5----7-7-----------------------------------------|
D-----5--5----5--5----5--5------------------------------------------------|
A-0-0-----0-0-----0-0-----0-0---------------------------------------------|
D-0-0-----0-0-----0-0-----0-0---------------------------------------------|
pm^^^     ^^^     ^^^     ^^^     


E------------------------------6-6-6-8---8--8---8--8--8-------------------|
B------6-6-6-8--8-8--8-8-8-----8-8-8-10--10-10--10-10-10------------------|
G------7-7-7-9--9-9--9-9-9------------------------------------------------|
D-------------------------------------------------------------------------|
A-0-0----------------------0-0--------------------------------------------|
D-0-0----------------------0-0---------------------------7p5p0p 7p5p0-7p5-|
pm^^^                      ^^^


E-------------------------------------------------------------------------|
B-------------------------------------------------------------------------|
G-------------------------------------------------------------------------|
D-8-8-8-8-8-8-8-8-8-5-5-5-5-5-5-5-5---------------------------------------|
A-8-8-8-8-8-8-8-8-8-5-5-5-5-5-5-5-5---------------------------------------|
D-8-8-8-8-8-8-8-8-8-5-5-5-5-5-5-5-5--0-0-3p2p0-3p0h2-0-0-3p2p0-3p2p0------|
pm^^^^^^^^^^^^^^^^^^^^^^^^^^^^^^^^^


E-------------------------------------------------------------------------|
B-------------------------------------------------------------------------|
G-------------------------------------------------------------------------|
D-8-8-8-8-8-8-8-8-8-5-5-5-5-5-5-5-5---------------------------------------|
A-8-8-8-8-8-8-8-8-8-5-5-5-5-5-5-5-5---------------------------------------|
D-8-8-8-8-8-8-8-8-8-5-5-5-5-5-5-5-5--7p5p0-7p5p0-7p5p0-7p5p0-7p5p0--------|
pm^^^^^^^^^^^^^^^^^^^^^^^^^^^^^^^^^


E-------------------------------------------------------------------------|
B-------------------------------------------------------------------------|
G-------------------------------------------------------------------------|
D-8-8-8-8-8-8-8-8-8-5-5-5-5-5-5-5-5---------------------------------------|
A-8-8-8-8-8-8-8-8-8-5-5-5-5-5-5-5-5---------------------------------------|
D-8-8-8-8-8-8-8-8-8-5-5-5-5-5-5-5-5--0-0-3p2p0-3p0h2-0-0-3p2p0-3p2p0------|
pm^^^^^^^^^^^^^^^^^^^^^^^^^^^^^^^^^


E-------------------------------------------------------------------------|
B-------------------------------------------------------------------------|
G-------------------------------------------------------------------------|
D-8-8-8-8-8-8-8-8-8-5-5-5-5-5-5-5-5---------------------------------------|
A-8-8-8-8-8-8-8-8-8-5-5-5-5-5-5-5-5---------------------------------------|
D-8-8-8-8-8-8-8-8-8-5-5-5-5-5-5-5-5--7p5p0-7p5p0-7p5p0-7p5p0-7p5p0--------|
pm^^^^^^^^^^^^^^^^^^^^^^^^^^^^^^^^^


E-------------------------------------------------------------------------|
B-------------------------------------------------------------------------|
G-------------------------------------------------------------------------|
D-000---------------------------------------------------------------------|
A-000---------------------------------------------------------------------|
D-000---------------------------------------------------------------------|
pm^^

LET IT FLOW!!!!!!!!!!!!!!!!                                              3x
E-|-----------------------------------------------------------------------|
B-|-----------------------------------------------------------------------|
G-|-o-------------------------------------------------------------------o-|
D-|-o---0-0-0-0-0-0-0-0-0------0-0-0--0--0--0--0--0---------------------o-|
A-|-----0-0-0-0-0-0-0-0-0(ring)0-0-0--0--0--0--0--0-----------------------|
D-|-----0-0-0-0-0-0-0-0-0------0-0-0--0--0--0--0--0-----------------------|
pm      ^^^^^^^^^^^^^^^^^      ^^^^^^^^^^^^^^^^^^^^


E-------------------------------------------------------------------------|
B-------------------------------------------------------------------------|
G-------------------------------------------------------------------------|
D-0-0-0-0-0-0-0-0-0------0-0-0--0--0---0---0------------------------------|
A-0-0-0-0-0-0-0-0-0(ring)0-0-0--0--0---0---0------------------------------|
D-0-0-0-0-0-0-0-0-0------0-0-0--0--0---0---0------------------------------|
pm^^^^^^^^^^^^^^^^^      ^^^^^^^^^^^^^^^^^^^


E-------------------------------------------------------------------------|
B-------------------------------------------------------------------------|
G-------------------------------------------------------------------------|
D-8---8-8---88-8--8--8--8---8-88-3---3-3---33-3--3--3--3---0---0----------|
A-8---8-8---88-8--8--8--8---8-88-3---3-3---33-3--3--3--3---0---0----------|
D-8---8-8---88-8--8--8--8---8-88-3---3-3---33-3--3--3--3---0---0----------|
pm^^^^^^^^^^^^^^^^^^^^^^^^^^^^^^^^^^^^^^^^^^^^^^^^^^^^^^
Tap to rate this tab
 
# A B C D E F G H I J K L M N O P Q R S T U V W X Y Z