Song name
# A B C D E F G H I J K L M N O P Q R S T U V W X Y Z

Horse The Band - Crow Town tab

Crow Town
HORSE The Band
jjjddd

Drop D

i felt like the tab already up for this song was lacking a little 

e|-------------------------------------------------------------|
B|-------------------------------------------------------------|
G|-------------------------------------------------------------|
D|-------3---------------------------3\2/3---------------------|
A|----0---------------------------0----------------------------|
D|-0---------------------------0-------------------------------|

e|-------------------------------------------------------------|
B|---------x---------------------------------------------------|
G|---------x---------------------------------------------------|
D|-------3---------------------------3\2/3---------------------|
A|----0---------------------------0----------------------------|
D|-0---------------------------0-------------------------------|

e|----------------------------------------------///------------|
B|----------------------------------------------///------------|
G|----------------------------------------------///------------|
D|-------3---------------------------3\2/3------///------------|
A|----0---------------------------0-------------///--------3-5-|
D|-0---------------------------0----------------///------------|
                                                ^ drum roll



e|---------------------------------------|
B|---------------------------------------|
G|---------------------------------------|
D|-----3---------------------------------|
A|---------------5--------5------3-5-----|
D|---0---------3--------5----------------|

e|---------------------------------------|
B|---------------------------------------|
G|---------------------------------------|
D|-----3---------------------------------|
A|---------------5---------------0h3-5---|
D|---0---------3-------3--4-5------------|

    ^^^this repeats many times^^^ 


~silence and crows~


the riff comes back in with heavy distortion and what i think is 
an octave pedal on low settings to give it bigger and heavier sound

the riff then repeats 'til the end of the song
Tap to rate this tab
# A B C D E F G H I J K L M N O P Q R S T U V W X Y Z