Song name
# A B C D E F G H I J K L M N O P Q R S T U V W X Y Z

Horse The Band - Birdo tab

here you go this is birdo by horse the band, awesome song, not too hard

E|----------------------------------------------------|
B|----------------------------------------------------|
G|----------------------------------7777---------7777-|
D|--------3333---------5555---------5555---------5555-|
A|5p0-8p0-3333-5p0-8p0-5555-5p0-8p0-5555-5p0-8p0-5555-|
D|--------3333---------5555---------------------------|

E|--------------------------|
B|--------------------------|
G|--------------------------|
D|--------3333---------5555-|
A|5p0-8p0-3333-5p0-8p0-5555-|
D|--------3333---------5555-|

E|--------------------------------------------------|
B|--------------------------------------------------|
G|-----------------------------------------575------|
D|-----3p0----------3p0--------578------578---578---|
A|5p3p0---3-33-5p3p0---3-55-578---8--578------------|
D|----------33-----------55-------------------------|

E|-------------------------------------------|
B|-------------------------------------------|
G|-------------------------------------------|
D|0-0---------0-0---------3-3--------3-3-----|
A|0-0---------0-0---------3-3--------3-3-----|
D|0-0---------0-0---------3-3--------3-3-----|

E|-----------------------------------------------|
B|-----------------------------------------------|
G|----1010109-----1010109-----555555-----555555~-|
D|0-0-8888887-0-0-8888887-3-3-555555-3-3-555555~-|
A|0-0---------0-0---------3-3--------3-3---------|
D|0-0---------0-0---------3-3--------3-3---------|

"Go Eat Your Eggs!"
E|--------------------------------------------|
B|--------------------------------------------|
G|--------------------------------------------|
D|0-0-0-00---0-0-0-00-\-3-3-3-33---3-3-3-33---| x2
A|0-0-0-00---0-0-0-00-\-3-3-3-33---3-3-3-33---|
D|0-0-0-00---0-0-0-00-\-3-3-3-33---3-3-3-33---|
  . . . ..   . . . ..   . . . ..   . . . ..

E|--------------------------------------------------------|
B|--------------------------------------------------------|
G|--------------------------------------------------------|
D|--------------------------------3333333355555555--------|
A|--------------------------------1111111133333333--------|
D|00000000333333333333333355555555------------------------|
  ................................................

E|----------------------------------------------------|
B|-------------------------------------------------8*-|
G|----------------------------------------------------|
D|---3p0----------3p0----------3p0---------3p0--------|
A|535---35-----535---35-----535---35----535---35------|
D|---------0-----------0------------3-----------3-----|

E|------------------------|
B|------------------------|
G|------------------------|
D|---3p0----------3p0-----|
A|535---35-----535---35---|
D|---------0-----------0--|

E|---------------------------------------|
B|---------------------------------------|
G|---------------------------------------|
D|14-14-14-14-12-12-12-12-12-12-12-12-0~-|
A|0 -0 -0 -0 -0 -0 -0 -0 -12-12-12-12-0~
D|0 -0 -0 -0 -0 -0 -0 -0 -12-12-12-12-0~

(slow keyboard part)

E|------------|
B|------------|
G|------------|
D|------------|
A|00--0-00000-|
D|00--0-00000-|

E|---------------------19-24\-----------------------24------|
B|----------------------------------------------------24\---|
G|----------------------------------------------------------|
D|----------------------------------------------------------|
A|0-0----0--0-00000------------0-0----0--0-00000------------|
D|0-0----0--0-00000------------0-0----0--0-00000------------|

E|----------------------------------------------------------|
B|----------------------------------------------------------|
G|----------------------------------------------------------|
D|----------------------------------------------------------|
A|0-0----0--0-00000------------0-0----0--0-00000------------|
D|0-0----0--0-00000------------0-0----0--0-00000------------|

E|--------------------|
B|--------------------|
G|--------------------|
D|5--7--8----2--3--0--| x2
A|5--7--8----2--3--0--|
D|5--7--8----2--3--0--|

E|--------------------------------------|
B|--------------------------------------|
G|--------------------------------------|
D|5-5-5-5558-8-8-8880-0-0-0000-0-0-000--| x2
A|5-5-5-5558-8-8-8880-0-0-0000-0-0-000--|
D|5-5-5-5558-8-8-8880-0-0-0000-0-0-000--|

E|----------------------------------------------|
B|----------------------------------------------|
G|----------------------------------------------|
D|12p0-12p0-7p0-7p07p07p0-8p0-8p0-3p0-3p05p05p0-|
A|----------------------------------------------|
D|----------------------------------------------|
                                                   x2
E|---------------------------------------------|
B|---------------------------------------------|
G|---------------------------------------------|
D|7p0-7p0-3p0-3p03p03p0-5p0-5p0-2p0-2p02p02p0--|
A|---------------------------------------------|
D|---------------------------------------------|

E|------------------------------------------------------8-----|
B|------------------------------------------------------------|
G|----------------------------------------------------7---7---|
D|---------------------------------------------------0-0-0----|
A|00000----------00000----------00000----------00000----------|
D|00000----------00000----------00000----------00000----------|

E|------------------------8---------------------------------------|
B|----------------------------------------------------------------|
G|----------------------7---7-------------------------------------|
D|---------------------0-0-0--------------------------------------|
A|00000----------00000--------00000----------00000----------00000-|
D|00000----------00000--------00000----------00000----------00000-|

Ok that's it, i hope it works for you it all sounds right to me.

-brandon
Tap to rate this tab
# A B C D E F G H I J K L M N O P Q R S T U V W X Y Z