Song name
# A B C D E F G H I J K L M N O P Q R S T U V W X Y Z

Horslips - Daybreak tab

-------------------------------------------------------------------------------
			     DAYBREAK - Horslips
-------------------------------------------------------------------------------
Tabbed by: Stonegolem13
Tuning:    Standard (EADGBe)

Nice short song, here we go:

e|--------------------------------------------|
B|----------------7-8~~~----------------------|
G|----4-7~~~--7-9-----------4-7~~~-5-2-4-2/0--|
D|--5---------------------5-------------------|
A|--------------------------------------------|
E|--------------------------------------------|

e|--------------------------------------------|
B|----------------7-8~~~----------------------|
G|----4-7~~~--7-9-----------4-7~~~-4-5-4-4/2--|
D|--5---------------------5-------------------|
A|--------------------------------------------|
E|--------------------------------------------|

Told ya it was quick and easy
HORSLIPS ROCK!

| /  slide up
| \  slide down
===============================================================================
Tap to rate this tab
 
# A B C D E F G H I J K L M N O P Q R S T U V W X Y Z