Song name
# A B C D E F G H I J K L M N O P Q R S T U V W X Y Z

Horslips - Sword Of Light tab

-------------------------------------------------------------------------------
                              Sword Of Light - Horslips
                     The Book Of Invasions: A Celtic Symphony (1976)
-------------------------------------------------------------------------------

Tabbed by: Niall McConville
Email: niall9408 [at] [g]mail.com

Tuning: Standard (EADGBe)

Opening 0:01 to 0:20 
(The same riff is used throughout the song, except the 0h3p0 is not repeated often.)

e|------------------------------------------------------------|
B|-----------------------------------------3-1-0--------------|
G|---2p0-----2---2-0-----2p0---2p0-----2--------2p0-----------|
D|-0-----2p0---0-----2p0-----0-----2p0---0--------------------|
A|------------------------------------------------------------| 
E|------------------------------------------------------------|

e|------------------------------------------------------------|
B|-----------------------------------------3-1-0--------------|
G|---2p0-----2---2-0-----2p0---2p0-----2----------------------|
D|-0-----2p0---0-----2p0-----0-----2p0---0-------------0-0----|
A|-----------------------------------------------0h3p0--------|
E|------------------------------------------------------------|

e|------------------------------------------------------------|
B|------------------------------------------------------------|
G|------------------------------------------------------------|
D|------0-0------------0-0------0-0---------------------------|
A|-0h3p0----0h2h3-0h3p0----0h3p0----0h3p0---------------------|
E|------------------------------------------------------------|

1:20 to 1:30

e|------------------------------------------------------------|
B|-------------------------------------12-13p12----15~--------|
G|------4h5---------4-5p4--------11-14----------14------------|
D|----7---------4-7-------7---12------------------------------|
A|--5---------5-----------------------------------------------|
E|------------------------------------------------------------|


2:09-2:20 
(My ears won't tell me this exactly, but I'm interpreting it as this)

e|------------------------------------------------------------|
B|------------------------------------------------------------|
G|---7-7S5S7-7-----5S7-7\-------------------------------------|
D|---7-7S5S7-7-7-7-5S7-7\-------------------------------------|
A|---5-5S3S5-5-7-7-3S5-5\-------------------------------------|
E|-------------5-5--------------------------------------------|
Tap to rate this tab
 
# A B C D E F G H I J K L M N O P Q R S T U V W X Y Z