Song name
# A B C D E F G H I J K L M N O P Q R S T U V W X Y Z

Horslips - Dearg Doom tab

An Dearg Doom


From Dave Curtis      sonicboombox@yahoo.com

Basically this song is loadsa riffs put together, so rather
than writing all the riffs out over and over I just wrote
them out once and put a Breakdown at the end.Enjoy!

Riff 1:
e----------------------|
B----------------------|
G----------------------|
D----3-2-5---3-3p2-----|
A-/5-------5-------5-3-|
E----------------------|

Riff 2:
e---------------------|
B---------------------|
G---------------------|
D---3-2-5---3-3p2-----|
A-0-------5-------5-3-|
E---------------------|

Riff 3:
e----------------|
B--------5-------|
G-/7-5-7---7-5---|
D--------------7-|
A----------------|
E----------------|

Riff 4:
e-------------------|
B-------------------|
G-----------7-7-5---|
D-5-7---7-5-------7-|
A-----8-------------|
E-------------------|

Riff 5:
e------------|
B------------|
G------------|
D-5-7---7-5~-|
A-----8------|
E------------|

Lead up:
e---------------------------------------------------------------------|
B-10p8-5b-5b-5--10p8-5b-5b-5-13p12p10------13p12-10-15b~--13p12-10----|
G-------------------------------------12-9-------------------------12-|
D---------------------------------------------------------------------|
A---------------------------------------------------------------------|
E---------------------------------------------------------------------|

e---------------------------|
B-18p17p15-13p12p10-10-12b~-|
G---------------------------|
D---------------------------|
A---------------------------|
E---------------------------|

Solo:
e----------------------------------------------------------|
B-------------------------------------------10-12-10----10-|
G-14h16p14-12-14~-16-14-14-12-14-11-12-9-12----------12----|
D----------------------------------------------------------|
A----------------------------------------------------------|
E----------------------------------------------------------|

e--------------------------------------|
B-15p14p12-10~-12-10-10-8-10-7-8-5-5-3-|
G--------------------------------------|
D--------------------------------------|
A--------------------------------------|
E--------------------------------------|

e--------------------------------------|
B--------------------------------------|
G-7~-----7-7---7-7---7-9b-7---7-9-7-9b-|
D-----/9-----9-----9--------9----------|
A--------------------------------------|
E--------------------------------------|

e------------------------------|
B-10-7-------------------------|
G------9-7---7-9b-9b-9b-9~-7-9-|
D----------9-------------------|
A------------------------------|
E------------------------------|

Riff 6:
e-------------------------------------|
B-------------------------------------|
G-16-14-12-9-9-10-7-9-10-12-14-16-19~-|
D-------------------------------------|
A-------------------------------------|
E-------------------------------------|

Riff 7:
e------------------------------|
B------------------------------|
G-----10-9-12----10-10p9-------|
D-/12---------12---------12-10-|
A------------------------------|
E------------------------------|

Riff 8:
e----------------------------|
B----------------------------|
G---10-9-12----10-10p9-------|
D-7---------12---------12-10-|
A----------------------------|
E----------------------------|

Breakdown:
Riff 1 x1
Riff 2 x11
Riff 3 x4
Riff 1 x1
Riff 2 x1
Riff 4 x4
Riff 1 x1
Riff 2 x7
Riff 3 x4
Riff 1 x1
Riff 2 x1
Riff 4 x3
Riff 5 x1
Lead up
Solo
Lead up
Riff 6 x1
Riff 7 x7
Riff 3 x4
Riff 1 x1
Riff 2 x1
Riff 4 x4

Instrumental on various tradition instruments
Tap to rate this tab
# A B C D E F G H I J K L M N O P Q R S T U V W X Y Z