Song name
# A B C D E F G H I J K L M N O P Q R S T U V W X Y Z

Horslips - An Dearg Doom tab

#----------------------------------PLEASE NOTE---------------------------------#
#This file is the author's own work and represents their interpretation of the #
#song. You may only use this file for private study, scholarship, or research. #
#------------------------------------------------------------------------------##

An Dearg Doom - The Horslips

The Horslips
Dearg Doom

this Riff also appears in Larry Mullens 1990 World Cup Anthem
"Put 'em under pressure


|---------------------------------------|x11 or x12
|---------------------------------------|
|---------------------------------------|
|-----3--2--5----3-3-2------------------|
|--5-----------5--------5-3-------------|
|---------------------------------------|

|---------------------------------------|x2
|---------------------------------------|
|---------------------------------------|
|---------------------------------------|
|--5--3--5--7--5--3--0------------------|
|---------------------------------------|

|---------------------------------------|x2
|---------------------------------------|
|-----------------7--7--5---------------|
|--5--7--3--7--5-----------7------------|
|---------------------------------------|
|---------------------------------------|


I don't know the rest!
submitted by Nicker_s@yahoo.com
questions, comments, corrections welcome!
Tap to rate this tab
 
# A B C D E F G H I J K L M N O P Q R S T U V W X Y Z