Song name
# A B C D E F G H I J K L M N O P Q R S T U V W X Y Z

Horslips - Mad Pat Acoustic tab

Intro
|-------------------------------------------------------------------------|
|------5-5------0-------------3-------3-----------------------------------|
|-----------------0-----------2--0----2-----------------------------------|
|-0--5-----5s7-8----8---5--3--3----3--0--0--------------------------------|
|-------------------------------------------------------------------------|
|-------------------------------------------------------------------------|


|-------------------------------------------------------------------------|
|------5-5------0-------------1-1-----------------------------------------|
|-----------------0-----------0--0---0------------------------------------|
|-0--5-----5s7-8----8---5--3--1---1-----1-0-0-----------------------------|
|-------------------------------------------------------------------------|
|-------------------------------------------------------------------------|

|-------------------------------------------------------------------------|
|------5-5------0-------------3---1---------------------------------------|
|-----------------0-----------2---0--0------------------------------------|
|-0--5-----5s7-8----8---5--3--3---1-----1-0-0-----------------------------|
|-------------------------------------------------------------------------|
|-------------------------------------------------------------------------|
Tap to rate this tab
 
# A B C D E F G H I J K L M N O P Q R S T U V W X Y Z