Song name
# A B C D E F G H I J K L M N O P Q R S T U V W X Y Z

Horslips - Fantasia My Lagan Love tab

-------------------------------------------------------------------------------
		    Fantasia (My Lagan Love) - Horslips
-------------------------------------------------------------------------------
Tabbed by: Stonegolem13
Tuning:    Standard (EADGBe)

Ok, this song is really heavy on the vibrato so effects pedals will help....though if 
can pull it off without one well done!!!

e|--5-7-8-10~~~~~---------------------------------------------|
B|---------------8/10-8-7------------7-8-10-8-7---------------|
G|------------------------7-5~~~~~h7------------7~~~~~-5h7-7--|
D|------------------------------------------------------------|
A|------------------------------------------------------------|
E|------------------------------------------------------------|

Play that twice then this:

e|-------------------------------------7-8-10~~---7h8p7-5-7-9-10-10~~~~-|
B|----7-8-12~~~~10-10h12p10-8-7-8~~~~8----------8-----------------------|
G|--7-------------------------------------------------------------------|
D|----------------------------------------------------------------------|
A|----------------------------------------------------------------------|
E|----------------------------------------------------------------------|

e|--13-12-10h12p10-8h10-10~~~~--------------------------------------------|
B|----------------------------8/10-8-7-----------7-8-10-8-7---------------|
G|-------------------------------------7-5~~~~h7------------7~~~~5h7-7~~~-|
D|------------------------------------------------------------------------|
A|------------------------------------------------------------------------|
E|------------------------------------------------------------------------|

After this goes twice the intro changes to this:

e|--5-7-7h8p7-8-10-10~~~~--|
B|-------------------------|
G|-------------------------|
D|-------------------------|
A|-------------------------|
E|-------------------------|

Other than that it's the same. Enjoy :)
HORSLIPS ROCK!

| /  slide up
| \  slide down
| h  hammer-on
| p  pull-off
| ~  vibrato
===============================================================================
Tap to rate this tab
# A B C D E F G H I J K L M N O P Q R S T U V W X Y Z