Song name
# A B C D E F G H I J K L M N O P Q R S T U V W X Y Z

Hoshal - Around The Stars tab

MAVEN - Tough Enough

There are 2 guitars in this song, I think one of em is in drop D...
I tabbed it for standard tuning. 
hope this helps

intro riff:
e-------18-----13-----11-----9-| (2x)
B-16h18-----16-----14-----13---|
G------------------------------|
D------------------------------|
A------------------------------|
E------------------------------|
lead part:
e-----------------------------|
B-----------------------------|
G-----------------------------|
D-88-6-8-8b-6-8--8-6-8-8b-6-8-|
A-----------------------------|
E-----------------------------|
intro rhythm:
e----------------------------------------------------------------------|
B----------------------------------------------------------------------|
G----------------------------------------------------------------------|
D-88888888-8888888-44444444-6666666--88888888-8888888-44444444-1111111-|
A-88888888-8888888-44444444-6666666--88888888-8888888-44444444-1111111-|
E-66666666-6666666-22222222-4444444--66666666-6666666-22222222---------|

verse lead:
e--------------------------------------------------| (2x pm'd)
B--------------------------------------------------|
G----------------------------------------555-66-55-|
D-88-66-88-6-8--666-88-66--88-66-88-6-8------------|
A--------------------------------------------------|
E--------------------------------------------------|
then repeat intro riff 4x

chorus:
e--------------------------------------|
B---------------------------------pm'd-|
G-66666666------------------------/  \-|
D-66666666-66666666-33333333-4444-44-4-|
A-44444444-66666666-33333333-4444-44-4-|
E-44444444-44444444-11111111-2222-22-2-|

e------------------------------------------|
B---------------------------------pm'd-----|
G-66666666------------------------/  \-----|
D-66666666-66666666-33333333-4444-44-4-----|
A-44444444-66666666-33333333-4444-44-4-9br-|
E-44444444-44444444-11111111-2222-22-2-----|

repeat intro riff 4x + intro rhythm
repeat verse lead

2nd chorus:
e--------------------------------------|
B---------------------------------pm'd-|
G-66666666------------------------/  \-|
D-66666666-66666666-33333333-4444-44-4-|
A-44444444-66666666-33333333-4444-44-4-|
E-44444444-44444444-11111111-2222-22-2-|

e-------------------------------------|
B-------------------------------------|
G-66666666----------------------------|
D-66666666-66666666-33333333-44444444-|
A-44444444-66666666-33333333-44444444-|
E-44444444-44444444-11111111-22222222-|

bridge:
(guitar 1)
e------------------------------|(4x)
B------------------------------|
G-6\5-5/6-6/8-8/10-10----------|
D-x-x-x-x-x-x-x--x--x--333-444-|
A-4\3-3/4-4/6-6/-8--8--333-444-|
E----------------------111-222-|
(guitar 2)
e----------------------------------|(4x)
B----------------------------------|
G-11\10-10-10\8-8-8\6-666----------|
D--x--x--x--x-x-x-x-x-xxx--333-444-|
A--9\-8--8--8\6-6-6\4-444--333-444-|
E--------------------------111-222-|

solo:
e-----------------------------------------|
B-------------------------------------11--|
G-8h10-8----------------------------------|
D--------11-10-10-10h11-8/10-6/8-88-88--8-|
A-----------------------------------------|
E-----------------------------------------|

e-----------------------------------------|
B-----------------------------------------|
G-8h10-8----------------------10\8-88-888-|
D--------11-10-10-10h11-11-11-------------|
A-----------------------------------------|
E-----------------------------------------|

e---------------------(3x)-----|
B------11--------11--------11~-|
G-6/88----8-8-88----8----------|
D------------------------------|
A------------------------------|
E------------------------------|

(acoustic part??)

repeat 2nd chorus 2x

end on E5
e---|
B---|
G---|
D-2-|
A-2-|
E-0-|

tabbed by noneoftheabove
questions or comments send to: tish711@hotmail.com
Tap to rate this tab
# A B C D E F G H I J K L M N O P Q R S T U V W X Y Z