Song name
# A B C D E F G H I J K L M N O P Q R S T U V W X Y Z

Hospitality - Friends Of Friends tab

This is a great song by a great band, also this is my first tab so it might be a little
shaky at parts but it sounds accurate to me.
h-hammer-on
p-pull-off
*-optional bass note
Time Signature 4/4

**************************************************INTRO****************************

e |55------|55------|77------|77------|
B |55------|55------|77------|77------|
G |66------|66------|77------|77------|
D |77------|77------|99------|99------|
A |77------|77------|99------|99------|
E |55--*5--|55--*5--|77--*7--|77--*7--|


************************************************VERSES*****************************

e|55--------|55--------|77--------|77--------|
B|55--------|55--------|77-10-7---|77-10-7---|
G|66----6---|66----6---|77-----9-6|77-----9-6|
D|77-6h7-7p6|77-6h7-7p6|99--------|99--------|
A|77--------|77--------|99--------|99--------|
E|55--------|55--------|77--------|77--------|


**********************************************PRE-CHORUS*****************************

e|44444444|77777777|22222222|5-------|
B|55555555|88888888|33333333|6-------|
G|66666666|99999999|44444444|7-------|
D|66666666|99999999|44444444|7-------|
B|44444444|77777777|22222222|5-------|
E|--------|--------|--------|--------|

**************************************************CHORUS***************************
Time Signature
6/4

e|4-4-22222222|4-4-22222222|4-4-5-5555-|
B|5-5-33333333|5-5-33333333|5-5-5-7777-|
G|6-6-44444444|6-6-44444444|6-6-6-7777-|
D|6-6-44444444|6-6-44444444|6-6-7-7777-|
A|4-4-22222222|4-4-22222222|4-4-7-5555-|
E|------------|------------|----5------|


*******************************************Keyboard Part***********************

Alright, there is a keyboard/feedback part in here that you can kinda just improvise
through, I'll tab out the first part for you though.

e|555-----|555-----|777-----|777-----|
B|555-----|555-----|777-----|777-----|
G|666-----|666-----|999-----|999-----|
D|777-----|777-----|999-----|999-----|
A|777-----|777-----|999-----|999-----|
E|555-----|555-----|777-----|777-----|

*********************************************END PRODUCT/LYRICS*********

Intro x2
Verse x2
Pre-Chorus
Chorus
Verse x3
Pre-Chorus
Chorus
Keyboard Part x8
Pre-Chorus
Chorus

I don't wanna go
Down the 14th street
In old New York
I'd rather be home
Why's it all the same
Crowded flying planes
New Amsterdam
And tall, rich men

March has come
and your girlfriend is coming home

You've got friends that are new friends
And friends that are old friends
And friends looking out

Got a cheap dress on
With a wrinkled sleeve
My hat and gloves
My money please
Oh well March is cold
And the burnt black hair
I'd rather be home
My president's there

When I call
You don't pick up anymore

But I've got friends that are new friends
And friends that are old friends
And friends looking out

When I call
You don't pick up anymore

But I've got friends that are new friends
And friends that are old friends
And friends looking out
Tap to rate this tab
# A B C D E F G H I J K L M N O P Q R S T U V W X Y Z